>
 >
Ghost Behind My Eyes

Ghost Behind My Eyes Guitar Tabs

Ozzy Osbourne - Ghost Behind My Eyes chords, tabs, tablatures, lyrics

Guitar lessons | Add/correct | Request | Top 50 tabs Artists:  A B C D E F G H I J K L M N O P Q R S T U V W X Y Z 0-9

Ghost Behind My Eyes Guitar Tabs – Ozzy Osbourne

CD, Sheet music, Poster

Do you like Ghost Behind My Eyes? Share with your friends now
Bass TabsTabsTabs v2Tabs v3
|--------0--0----------0--|-----------------------0---------|
|------0------0-----------|--------0--------------------0---|
|-0h1---------------------|----------2--------2-------------|
|-------------------2-----|-----4------4--------2-----------|
|---------------3/4-------|-4/5----------5\4----------------|
|-0-----------------------|---------------------------------|

|----------0--------------0-|-------------------------0-----|
|-------------0-----------0-|---------0---------------0-----|
|----0h1--------1---------2-|-------0---0-------------2-----|
|---------------------2-----|-----4-------4-------2---------|
|-----------------3/4-------|-4/5-----------5-5\4-----------|
|-0-------------------------|-------------------------------|

"The spiders dancing on the wall..."
|-0----2---|-0--------------------|-0---2-------------------|
|-0----3---|-0------0---0---0---0-|-0---3-------------------|
|-0----2---|-1--------------------|-0---2-----2-2-2---------|
|-2----0---|-2----5---4---2---0---|-2---0-----2-2-2---------|
|-3--------|-2--------------------|-3---------0-0-0---------|
|----------|-0--------------------|-------------------------|

"And it is you..."                           1)=============|
|-0--0----------0-----|-----0----------0-----|--------------|
|-0----0----------0---|-------0----------0---|-2------------|
|-1-----------4-----4-|---4---------4------4-|-2------------|
|-2---------4---------|----------------------|-2--/7-6-----5|
|-2------/6-----------|-4---------2----------|-0-------0-4--|
|-0-------------------|----------------------|--------------|

2)==========================================================|
|-3----3-----0-------------|-3----3------0------------------|
|-3----3-----0-------3-----|-3----3------0------------------|
|-0----2-----1-----0---0---|-0----2------1------------------|
|-0----2-----2---4-------4-|-0----2------2--/7-6-----5------|
|-2----0-----2-------------|-2----0------2-------0-4--------|
|-3--------x-0-------------|-3---------0-0------------------|

"I wish to god that i could sleep again..."
|-0-----------|-----------------0-----------|---------------|
|---0---------|-----0---0---0-----0---------|---0-----------|
|-----2-------|-------4---4---------4-------|-----2---------|
|-------3--3--|-----------------------5-\-3-|-------3-------|
|-------------|-----------------------------|---------------|
|-------------|-----------------------3-\-1-|---------------|

|-----0-------0----------|----------------------------------|
|-------0-----0----------|----------------------------------|
|---------4---4----------|--------------------4---4---4-----|
|-----------5-5----------|----------------------------------|
|------------------------|----------------------------------|
|------------------------|----------------------------------|

SOLO:
|-----------------------------------------------------------|
|-9-------7-------10-------9-----\---1----3-----1---0--3/9--|
|-----------------------------------------------------------|
|-----------------------------------------------------------|
|-----------------------------------------------------------|
|-----------------------------------------------------------|

|-----------------------------------------------------------|
|-9-9--10--10/12-------10------9-----9/17-----17\5----8-7--5|
|-----------------------------------------------------------|
|-----------------------------------------------------------|
|-----------------------------------------------------------|
|-----------------------------------------------------------|

|-----------------|----------------|------------------------|
|-5------4--3--2--|-1----3----1----|-0----3-/-9-------------|
|-----------------|----------------|------------------------|
|-----------------|----------------|------------------------|
|-----------------|----------------|------------------------|
|-----------------|----------------|------------------------|

|-----------------------------------------------------------|
|-5-----/8--7----\5---5-------------------------------------|
|-----------------------------------------------------------|
|-----------------------------------------------------------|
|-----------------------------------------------------------|
|-----------------------------------------------------------|

ENDING:
|-0------------|---------0------------0---|-------0--------0|-------------|
|-0------------|-----------0----------0---|------0-0-------0|----------0--|
|-1------------|-------x-----0------2-----|---0h1---1-----2-|-------0-----|
|-2----------2-|-----4------------2-------|--------------2--|-----4-------|
|-2--/4--4-4---|-4/5-----------/4-------2-|-----------3/4---|-4/5---------|
|-0------------|--------------------------|-0---------------|-------------|





Comments


Popular Ozzy Osbourne tabs & chords
Over The Mountain Bass Tabs
So Tired Chords
A.V.H. Tabs
Crazy Babies 1 Tabs
Iron Man Live Tabs
Road To Nowhere 1 Tabs
Suicide Solution 1 Tabs
Suicide Solution 3 Tabs
Thunder Underground Tabs
You Can't Kill Rock And Roll Tabs


Song lyrics



↑ Back to top | Tablatures and chords are parodies/interpretations of the original songs. You may use it for private study, scholarship, research or language learning purposes only
© 2014 AZChords.com Contact us | Privacy policy | DMCA | Add/correct tabs | Request tabs | Top 50 tabs