>
 >
Dee 1

Dee 1 Guitar Tabs

Ozzy Osbourne - Dee 1 chords, tabs, tablatures, lyrics

Guitar lessons | Add/correct | Request | Top 50 tabs Artists:  A B C D E F G H I J K L M N O P Q R S T U V W X Y Z 0-9

Dee 1 Guitar Tabs – Ozzy Osbourne

CD, Sheet music, Poster

Do you like Dee 1? Share with your friends now
TabsTabs v2Tabs v3Tabs v4Tabs v5
"Dee" Written & preformed by Randy Rhodes



This is an excellent classical piece!  It is a great song to learn for practicing your
finger-picking.  Randy was a geneous when it came to writing music-too bad he's gone.
I'm not much of a classical player so some of the parts may be a little off, but, it
sounds pretty good to me compared to the album!  It took me quite a while to transcribe this
so any changes or feedback is welcome.  Enjoy!


         H          HARMONICS
e:7-----3--5--7--5----7------|
B:---3----------------7------|
G:--------------------7------|
D:5--------------0----7------|
A:---------------------------|
E:---------------------------|





e:-7-----------7-----10----------10-----------------12---12-|
B:-------7--------7--------8---------8----------10----10----|
G:----7-----7-----------7-----7--------------9--------------|
D:-9-----------------9------------------9/11----------------|
A:----------------------------------------------------------|
E:----------------------------------------------------------|





e:7-----H--7------------------------0---0---P---------------0-------|
B:-----7-8----10------8---8--7-5-3----0----5-3---3------3-----3-----|
G:---7------------------6----------------------6----------2-----2---|
D:-----------------------------------------------4----4-----------4-|
A:10----------9-------7------5-4-2---------0------------------------|
E:----------------------------------3-------------------------------|




   H P P                                        P   P   P   P               H
e:5-7-5-3---2-----2--2-----2--------0--2-3---3-3-2-2-0-2-0-2-0--0-----------12---|
B:--------------0--------0-----------------0-------------------3--2---2-3/9-12---|
G:------------2--------2--------------------------------------------0-------12---|
D:0---------1----------------------------------0----------------------------12---|
A:-------------------2--------------------------------------------0--------------|
E:----------------------------------3--2-0-----------------4---------------------|





                                      H P                      H P
E :-----------------------------1-3-5-5-7-5--------0-----3-5-7-7-9-7---------0|
B:-H-H-P-P---------------------3-5-7-------3---3----3---5-7-9-------2---2----|
G:0-2-4-2-0--P-P--------------------------------0-----0-------------------0--|
D:----------4-2-0--P-P---0---------------------------------------------------|
A:----------------4-2-0--------------------2-2----------------------0-0------|
E:---------------------------------------------------------------------------|


                                                                       

            P   P   P    P                                        HARM.
e:---------5-3-3-2-2-0--2-0--0--P------H--------0------7\5----P---7----|
B:2-------------------------3--5-3----3-5--2---2-2-----8\7---9-5--7----|
G:--0----------------------------------------0----0---------------7----|
D:---------0---------------------P--------------------------------7----|
A:----------------------4------4---0--2----0-----------0-----4---------|
E:-----------------------------|---------------------------------------|
                                        [HOLD NOTE





Comments


Popular Ozzy Osbourne tabs & chords
Crazytrain 1 Bass Tabs
Centre Of Eternity Tabs
I Don't Want To Change The World Tabs
I Dont Want To Stop Tabs
I Just Want You 1 Tabs
Junkie Tabs
Mr Crowley 3 Tabs
My Little Man Tabs
Shot In The Dark Tabs
I Just Want You Ukulele


Song lyrics



↑ Back to top | Tablatures and chords are parodies/interpretations of the original songs. You may use it for private study, scholarship, research or language learning purposes only
© 2014 AZChords.com Contact us | Privacy policy | DMCA | Add/correct tabs | Request tabs | Top 50 tabs