>
 >
Dee

Dee Guitar Tabs

Ozzy Osbourne - Dee chords, tabs, tablatures, lyrics

Guitar lessons | Add/correct | Request | Top 50 tabs Artists:  A B C D E F G H I J K L M N O P Q R S T U V W X Y Z 0-9

Dee Guitar Tabs – Ozzy Osbourne

CD, Sheet music, Poster

Do you like Dee? Share with your friends now
TabsTabs v2Tabs v3Tabs v4Tabs v5
Dee is a a somewhat fast paced song, so I doubt that this transcription
   will suffice without listening to the tape. It really is a basic song
   compared with most classical songs. But Randy has added in a few tricks
   here and there to make it sound difficult. Please forgive my non-standard
   format. Bascially, when notes are bunched together such as right after
   the first harmonic, you would fingerpick them rather quickly. I tried
   to vaguely capture the timing of the song by spacing the notes this
   way.
 
                  harmonic                  slide
1-------------------x7x---7---7---10---10--------------12-11-12----------------
2---12-----12--10---x7x-----7--7-----8---8-----------10------------------------
3---------12--------x7x----7-7------7-7------------9---------------------------
4--------12----9----x7x---9-------9----------9->11-----------------------------
5---10--10---------------------------------------------------------------------
6------------------------------------------------------------------------------
 
1-------------------3---3---2----------0---0-----0--------------0--------------
2---12-----12--10-----2---------5--3-----0---------3-2-3--3---3--3-------------
3---------12-------------------------------------------------2-2---------------
4--------12---------2-------0-------------------------------0------------------
5---10--10-----9----------------4--2-------------0-----------------------------
6--------------------------------------3------------------2--------------------
 
   trill pulloff                                                 harmonic
1---5=7=5<-0-----2---2------0---2---3---------3-2--2--0--0---------x12x--------
2---7---------------0-0------------------0--------------3----2--3--x12x--------
3------------------2--------------------0-0------------------------x12x--------
4----------------1---------------------2---2-----------------------x12x--------
5-----------------------2------------------------------------0-----------------
6---------------------------3---2---0--------------4---------------------------
 
    <--- hammers  --->             trill                      trill       slide
1----------------------------2--3--5=7=5-------0-----2--3--5--7=9=7------------
2----------------------------3-------------3--3------3----------------2----3>>5
3---4=2=0------------------------------------0--------------------------0------
4----------4=2=0---------0>>>>--------------------0>>>>>>----------------------
5----------------4=2=0---------------------2--------------------------0--------
6------------------------------------------------------------------------------
      po        po   po  po             po   slide             slide
1---5-->--3-3-2-2>0--2>0-----0-------0-----------------------------------------
2------------------------3>0--------3---2>0--3>5---2---------------------------
3----------------------------------------------------0--3-3--2-----------------
4---0>>>>>>>>>-------4>>>>>>>---------------------------------0----------------
5-----------------------------------2---0----------0-------------2>0-----------
6---------------------------------------------------------2--------------------
 
     slide      slide   harmonic
1---7-->--5---5-->--3----x7x---------------------------------------------------
2---8--------------------x7x---------------------------------------------------
3------------------------x7x---------------------------------------------------
4------------------------x7x---------------------------------------------------
5-------------4----------------------------------------------------------------
6---0->>>>>--------------------------------------------------------------------





Comments


Popular Ozzy Osbourne tabs & chords
Killer Of Giants Bass Tabs
Paranoid Bass Tabs
You Can't Kill Rock And Roll Bass Tabs
Goodbye To Romance 2 Tabs
Here For You Tabs
I Cant Save You Tabs
I Don't Know Tabs
I Dont Wanna Stop Intro Tabs
Mama Im Coming Home Ukulele
So Tired Ukulele


Song lyrics



↑ Back to top | Tablatures and chords are parodies/interpretations of the original songs. You may use it for private study, scholarship, research or language learning purposes only
© 2014 AZChords.com Contact us | Privacy policy | DMCA | Add/correct tabs | Request tabs | Top 50 tabs