>
 >
Crazy Trains

Crazy Trains Bass Tabs

Ozzy Osbourne - Crazy Trains chords, tabs, tablatures, lyrics

Guitar lessons | Add/correct | Request | Top 50 tabs Artists:  A B C D E F G H I J K L M N O P Q R S T U V W X Y Z 0-9

Crazy Trains Bass Tabs – Ozzy Osbourne

CD, Sheet music, Poster

Do you like Crazy Trains? Share with your friends now
Bass Tabs
Rhythm Fig. 1a                                               
G|--------------------------------------------------|
D|--------------------------------------------------|
A|--------------------------------------------------|3x
E|--2--2--------------5--5------0--0----------------|

G|--------------------------------------------------|
D|--------------------------------------------------|
A|--------------------5--5--------------------------|
E|--2--2------------------------0--0----------------|

Rhythm Fig. 1b
G|--------------------------------------------------|
D|--------------------------------------------------|
A|--------------------------------------------------|
E|--2--2--------------5--5------0--0----------------|
                                          
G|--------------------------------------------------|
D|--------------------------------------------------|
A|--------------------5-----------------------------|
E|--2--2-----------------------0--------------------|

Rhythm Fig. 2                                                
G|--------------------------------------------------|
D|-------------------------7-----6----4----2--------|
A|--0----0----0----0----0-----0---------------------|10x
E|--------------------------------------------------|  

Rhythm Fig. 3                                                   
G|--------------------------------------------------|
D|--------------------------------------------------|
A|---------------------5-------------0--------------|2x
E|--2--0--2------2--2-------2--2--4-----4--2--0-----|

Rhythm Fig. 4                                               
G|--------------------------------------------------|
D|--------------------------------------------------|
A|--------------------------------------------------|
E|--5-------(5)-4--2--0----------5h7-5--4-----------|
                                                     
G|--------------------------------------------------|
D|--------4-----4-----4-----4-----4-----4-----4-----|
A|--------------------------------------------------|
E|--2--2-----2-----2-----2-----2-----2-----2-----2--|

G|--------------------------------------------------|
D|--------------------------------------------------|
A|--------------------------------------------------|
E|--5----------4--2--0----------5h7-5--4------------|

Rhythm Fig. 5a                                                 
G|--------------------------------------------------|
D|--------------------------------------------------|
A|---------------------0----------------------------|
E|--2--0--2------2--4-------4--2--0----2--4~--------|
                                                 
G|--------------------------------------------------|
D|--------------------------------------------------|
A|---------------------5----5--5--------------------|
E|--2--0--2------2--4-------------0------2--4-------|  

Rhythm Fig. 2                                                
G|--------------------------------------------------|
D|-------------------------7-----6----4----2--------|
A|--0----0----0----0----0-----0---------------------|10x
E|--------------------------------------------------|  

Rhythm Fig. 3                                                   
G|--------------------------------------------------|
D|--------------------------------------------------|
A|---------------------5-------------0--------------|2x
E|--2--0--2------2--2-------2--2--4-----4--2--0-----| 


Rhythm Fig. 4                                               
G|--------------------------------------------------|
D|--------------------------------------------------|
A|--------------------------------------------------|
E|--5-------(5)-4--2--0----------5h7-5--4-----------|
                                                     
G|--------------------------------------------------|
D|--------4-----4-----4-----4-----4-----4-----4-----|
A|--------------------------------------------------|
E|--2--2-----2-----2-----2-----2-----2-----2-----2--|

G|--------------------------------------------------|
D|--------------------------------------------------|
A|--------------------------------------------------|
E|--5----------4--2--0----------5h7-5--4------------|

Rhythm Fig. 5b 
G|--------------------------------------------------|
D|--------------------------------------------------|
A|---------------------0----------------------------|
E|--2--0--2------2--4-------4--2--0----2--4~--------|
                                                 
G|--------------------------------------------------|
D|--------------------------------------------------|
A|---------------------5----5--5--------------------|
E|--2--0--2------2--4-------------0----0--4--0------|

Rhythm Fig. 1a                                               
G|--------------------------------------------------|
D|--------------------------------------------------|
A|--------------------------------------------------|
E|--2--2--------------5--5------0--0----------------|

G|--------------------------------------------------|
D|--------------------------------------------------|
A|--------------------5--5--------------------------|
E|--2--2------------------------0--0----------------|  
Rhythm Fig. 1b
G|--------------------------------------------------|
D|--------------------------------------------------|
A|--------------------------------------------------|
E|--2--2--------------5--5------0--0----------------|
                                          
G|--------------------------------------------------|
D|--------------------------------------------------|
A|--------------------5-----------------------------|
E|--2--2-----------------------0--------------------|  
Rhythm Fig. 6a                                                      
G|--------------------------------------------------|
D|--4--4--4--4--4--4--2--2--0--0--0--0--0--0--------|
A|--------------------------------------------4--4--|
E|--------------------------------------------------|
                                                      
G|--------------------------------------------------|
D|--------------------------------------------------|
A|--2--2--2--2--0--0--------------------------------|
E|--------------------4--4--2--2--2--2--2--2--2--2--|

Rhythm Fig. 6b
G|--------------------------------------------------|
D|--4--4--4--4--4--4--2--2--0--0--0--0--0--0--------|
A|--------------------------------------------4--4--|
E|--------------------------------------------------|
                                                      
G|--------------------------------------------------|
D|--------------------------------------------------|
A|--2--2--2--2--0--0-----------------------0--2--4--|
E|--------------------4--4--2--2--0--2--4-----------| 
Rhythm Fig. 6a                                                      
G|--------------------------------------------------|
D|--4--4--4--4--4--4--2--2--0--0--0--0--0--0--------|
A|--------------------------------------------4--4--|
E|--------------------------------------------------|
                                                      
G|--------------------------------------------------|
D|--------------------------------------------------|
A|--2--2--2--2--0--0--------------------------------|
E|--------------------4--4--2--2--2--2--2--2--2--2--|

Rhythm Fig. 6c                                                      
G|--------------------------------------------------|
D|--4--4--4--4--4--4--2--2--0--0--0--0--0--0--------|
A|--------------------------------------------4--4--|
E|--------------------------------------------------|
                                                      
G|--------------------------------------------------|
D|--------------------------------------------------|
A|--2--2--2--2--0--0--------------------------------|
E|--------------------4--4--0--0--0--0--0--0--0--0--|

Rhythm Fig. 1a                                               
G|--------------------------------------------------|
D|--------------------------------------------------|
A|--------------------------------------------------|
E|--2--2--------------5--5------0--0----------------|

G|--------------------------------------------------|
D|--------------------------------------------------|
A|--------------------5--5--------------------------|
E|--2--2------------------------0--0----------------|

Rhythm Fig. 1b
G|--------------------------------------------------|
D|--------------------------------------------------|
A|--------------------------------------------------|
E|--2--2--------------5--5------0--0----------------|
                                          
G|--------------------------------------------------|
D|--------------------------------------------------|
A|--------------------5-----------------------------|
E|--2--2-----------------------0--------------------|  

Rhythm Fig. 2                                                
G|--------------------------------------------------|
D|-------------------------7-----6----4----2--------|
A|--0----0----0----0----0-----0---------------------|10x
E|--------------------------------------------------|  




Rhythm Fig. 3                                                   
G|--------------------------------------------------|
D|--------------------------------------------------|
A|---------------------5-------------0--------------|2x
E|--2--0--2------2--2-------2--2--4-----4--2--0-----|

Rhythm Fig. 4                                               
G|--------------------------------------------------|
D|--------------------------------------------------|
A|--------------------------------------------------|
E|--5-------(5)-4--2--0----------5h7-5--4-----------|
                                                     
G|--------------------------------------------------|
D|--------4-----4-----4-----4-----4-----4-----4-----|
A|--------------------------------------------------|
E|--2--2-----2-----2-----2-----2-----2-----2-----2--|

G|--------------------------------------------------|
D|--------------------------------------------------|
A|--------------------------------------------------|
E|--5----------4--2--0----------5h7-5--4------------|

Rhythm Fig. 5b 
G|--------------------------------------------------|
D|--------------------------------------------------|
A|---------------------0----------------------------|
E|--2--0--2------2--4-------4--2--0----2--4~--------|
                                                 
G|--------------------------------------------------|
D|--------------------------------------------------|
A|---------------------5----5--5--------------------|  
E|--2--0--2------2--4-------------0----0--4--0------|  

Rhythm Fig. 1a                                               
G|--------------------------------------------------|
D|--------------------------------------------------|
A|--------------------------------------------------|
E|--2--2--------------5--5------0--0----------------|

G|--------------------------------------------------|
D|--------------------------------------------------|
A|--------------------5--5--------------------------|  repeatand
E|--2--2------------------------0--0----------------|  fade out





Comments


Popular Ozzy Osbourne tabs & chords
Close Your Eyes Forever Tabs
Crazy Babies Tabs
Diggin Me Down Tabs
Diggin Me Down Intro Tabs
Fool Like You Tabs
Goodbye To Romance 1 Tabs
Let It Die 1 Tabs
Paranoid 1 Tabs
Paranoid Tribute Tabs
Road To Nowhere 1 Tabs


Song lyrics



↑ Back to top | Tablatures and chords are parodies/interpretations of the original songs. You may use it for private study, scholarship, research or language learning purposes only
© 2014 AZChords.com Contact us | Privacy policy | DMCA | Add/correct tabs | Request tabs | Top 50 tabs