» » »

Crazy Train Bass tabs (ver.2)

Artists:  A B C D E F G H I J K L M N O P Q R S T U V W X Y Z # 

Crazy Train Bass tabs (ver.2)

Ozzy Osbourne
Rating:
0/5 (0 votes)

Hard to play? Try these video lessons and learn fast.
                Intro                             Intro End
G|----------------------------|     |------|
D|----------------------------|     |------|
A|--------------------5-5-----| 3x  |-5--7-|
E|-2-2--5-5--0-0--2-2-----0-0-|     |------|

Verse
G|---------------------|
D|-----------7-6-4-----|
A|--0-0-0-0-0-0----7---| 10x
E|---------------------|

Pre-Chorus                                                 
G|------------------------------------|
D|------------------------------------|
A|--------------5----------0----------| 2x
E|--2-0-2---2-2------2-2-4----4-2-0---|

Chorus                                      
G|----------------------------------|
D|----------------------------------|
A|----------------------------------|
E|--5*----4-2-0----------5h7-5--4---|
                                                      
G|------------------------|
D|-------4-4-4-4-4-4-4----|
A|------------------------|
E|--2-2---2-2-2-2-2-2-2---|
                                              
G|---------------------------------|
D|---------------------------------|
A|---------------------------------|
E|--5----4-2-0----------5h7-5--4---|
                                                 
G|---------------------------------|
D|---------------------------------|
A|--------------0------------------|
E|--2-0-2---2-4-----4-2-0---2-4~---|
                                                 
G|--------------------------------|
D|--------------------------------|
A|--------------5---5-5-----------|
E|--2-0-2---2-4---------0---2-4---|

Verse
G|---------------------|
D|-----------7-6-4-----|
A|--0-0-0-0-0-0----7---| 10x
E|---------------------|

Pre-Chorus                                                 
G|------------------------------------|
D|------------------------------------|
A|--------------5----------0----------| 2x
E|--2-0-2---2-2------2-2-4----4-2-0---|

Chorus                                      
G|----------------------------------|
D|----------------------------------|
A|----------------------------------|
E|--5*----4-2-0----------5h7-5--4---|
                                                      
G|------------------------|
D|-------4-4-4-4-4-4-4----|
A|------------------------|
E|--2-2---2-2-2-2-2-2-2---|
                                              
G|---------------------------------|
D|---------------------------------|
A|---------------------------------|
E|--5----4-2-0----------5h7-5--4---|
                                                 
G|---------------------------------|
D|---------------------------------|
A|--------------0------------------|
E|--2-0-2---2-4-----4-2-0---2-4~---|
                                                 
G|--------------------------------|
D|--------------------------------|
A|--------------5---5-5-----------|
E|--2-0-2---2-4---------0---2-4---|

Intro                             Intro End
G|----------------------------|     |------|
D|----------------------------|     |------|
A|--------------------5-5-----| 3x  |-5--7-|
E|-2-2--5-5--0-0--2-2-----0-0-|     |------|

Guitar Solo
G|------------------------------------------------------------------------|
D|-4-4-4-4-4-4-2-2-0-0-0-0-0-0--------------------------------------0-2-3-|
A|-----------------------------4-4-2-2-2-2-0-0-0-0-0-0--------0-2-4-------|
E|----------------------------------------------------4-0-2-4-------------|

G|------------------------------------------------------------------------|
D|-4-4-4-4-4-4-2-2-0-0-0-0-0-0--------------------------------------0-2-3-|
A|-----------------------------4-4-2-2-2-2-0-0-0-0-0-0--------0-2-4-------|
E|----------------------------------------------------4-0-2-4-------------|

G|------------------------------------------------------------------------|
D|-4-4-4-4-4-4-2-2-0-0-0-0-0-0--------------------------------------0-2-3-|
A|-----------------------------4-4-2-2-2-2-0-0-0-0-0-0--------0-2-4-------|
E|----------------------------------------------------4-0-2-4-------------|

G|----------------------------------------------------------------------|
D|-4-4-4-4-4-4-2-2-0-0-0-0-0-0------------------------------------------|
A|-----------------------------4-4-2-2-2-2-0-0-0-0-0-0------------------|
E|----------------------------------------------------4-0-0-0-0-0-0-0-0-|

Intro                             Intro End
G|----------------------------|     |------|
D|----------------------------|     |------|
A|--------------------5-5-----| 3x  |-5--7-|
E|-2-2--5-5--0-0--2-2-----0-0-|     |------|

Verse
G|---------------------|
D|-----------7-6-4-----|
A|--0-0-0-0-0-0----7---| 10x
E|---------------------|

Pre-Chorus                                                 
G|------------------------------------|
D|------------------------------------|
A|--------------5----------0----------| 2x
E|--2-0-2---2-2------2-2-4----4-2-0---|

Chorus                                      
G|----------------------------------|
D|----------------------------------|
A|----------------------------------|
E|--5*----4-2-0----------5h7-5--4---|
                                                      
G|------------------------|
D|-------4-4-4-4-4-4-4----|
A|------------------------|
E|--2-2---2-2-2-2-2-2-2---|
                                              
G|---------------------------------|
D|---------------------------------|
A|---------------------------------|
E|--5----4-2-0----------5h7-5--4---|
                                                 
G|---------------------------------|
D|---------------------------------|
A|--------------0------------------|
E|--2-0-2---2-4-----4-2-0---2-4~---|
                                                 
G|--------------------------------|
D|--------------------------------|
A|--------------5---5-5-----------|
E|--2-0-2---2-4---------0---2-4---|

Intro                            
G|----------------------------|    
D|----------------------------|    
A|--------------------5-5-----|  Play till Song ends 
E|-2-2--5-5--0-0--2-2-----0-0-|
            
Hard to play? Try these video lessons and learn fast. | Correct




comments powered by Disqus
↑ Back to top | Tablatures and chords are parodies/interpretations of the original songs. You may use it for private study, scholarship, research or language learning purposes only