>
 >
Crazytrain 1

Crazytrain 1 Bass Tabs

Ozzy Osbourne - Crazytrain 1 chords, tabs, tablatures, lyrics

Guitar lessons | Add/correct | Request | Top 50 tabs Artists:  A B C D E F G H I J K L M N O P Q R S T U V W X Y Z 0-9

Crazytrain 1 Bass Tabs – Ozzy Osbourne

CD, Sheet music, Poster

Do you like Crazytrain 1? Share with your friends now
Bass Tabs
Ouvir a musica e tocar certo a sequencia....a tab esta correta mais o tempo você terá que ouvir a musica para saber quanto tempo ele faz a base exatamente!!!

G|--------------------------------------------------|
D|--------------------------------------------------|
A|--------------------------------------------------|
E|--2--2--------------5--5------0--0----------------|

G|--------------------------------------------------|
D|--------------------------------------------------|
A|--------------------5--5--------------------------|
E|--2--2------------------------0--0----------------|

G|--------------------------------------------------|
D|--------------------------------------------------|
A|--------------------------------------------------|
E|--2--2--------------5--5------0--0----------------|
                                   
G|--------------------------------------------------|
D|--------------------------------------------------|
A|--------------------5--5--------------------------|
E|--2--2--------------------------------------------|

G|--------------------------2---1-------------------|
D|----------------------------------2---4-----------|
A|--0----0----0----0----0-----0---0---0-------------|
E|--------------------------------------------------|

G|--------------------------------------------------|
D|--------------------------------------------------|
A|--------------------------------------------------|
E|--2--0--2-------4--5--------0--2--4--5—-2-—0------|2x

G|--------------------------------------------------|
D|--------------------------------------------------|
A|--------------------------------------------------|
E|--5-5---------4--0--------------------------------|
                                                    
G|--------------------------------------------------|
D|-------4-4----4-4---4-4---4-4---4-4---4-4---4-4---|
A|--------------------------------------------------|
E|-----2-----2-----2-----2-----2-----2-----2-----2--|

G|--------------------------------------------------|
D|--------------------------------------------------|
A|--------------------------------------------------|
E|--5-----4----0---------2—-0--2--4--5----4--0------|
        
G|--------------------------------------------------|
D|--------------------------------------------------|
A|----------------------5-5----7-7------------------|
E|--2--0--2------4----------------------------------|

G|--------------------------2---1-------------------|
D|------------------------------------4----2--------|
A|--0----0----0----0----0-----0-----0----0----0-----|
E|--------------------------------------------------|Base
Fica nisso a musica interia (all the song)

G|--------------------------------------------------|
D|--------------------------------------------------|
A|--------------------------------------------------|
E|--2--0--2-------4--5--------0--2--4--5--2—-0------|2x

G|--------------------------------------------------|
D|--------------------------------------------------|
A|--------------------------------------------------|
E|--5-5---------4--0--------------------------------|
                                                     
G|--------------------------------------------------|
D|-------4-4----4-4---4-4---4-4---4-4---4-4---4-4---|
A|--------------------------------------------------|
E|-----2-----2-----2-----2-----2-----2-----2-----2--|

G|--------------------------------------------------|
D|--------------------------------------------------|
A|--------------------------------------------------|
E|--5-----4----0---------2—-0--2---4--5----4--0-----|
                
G|--------------------------------------------------|
D|--------------------------------------------------|
A|----------------------5-5----7-7------------------|
E|--2--0--2------4----------------------------------|

G|--------------------------------------------------|
D|--------------------------------------------------|
A|--------------------------------------------------|
E|--2--2--------------5--5------0--0----------------|

G|--------------------------------------------------|
D|--------------------------------------------------|
A|--------------------5--5--------------------------|
E|--2--2------------------------0--0----------------|  

G|--------------------------------------------------|
D|--------------------------------------------------|
A|--------------------------------------------------|
E|--2--2--------------5--5------0--0----------------|
                                          
G|--------------------------------------------------|
D|--------------------------------------------------|
A|--------------------5--5--------------------------|
E|--2--2--------------------------------------------|  
solo
G|--------------------------------------------------------|
D|--4--4--4--4--4--4--4--4--------------------------------|
A|--------------------------7-7—-5—-5--5—-5-—5—-5—-5-–5--5|
E|--------------------------------------------------------|
                                                      
G|---------------------------------------------------------|
D|---------------------------------------------------------|
A|--4-4----------------------------------------------------|
E|------7—-7—-7—-7—-7--7—7--5--5--5--5--5--5--5--5---------|

G|---------------------------------------------------------|
D|---------------------------------------------------------|
A|---------------------------------------------------------|
E|-----4--4--4--4—-2-—2--2--2--2---------------------------|
                                                  Final do solo tocar 4x( as duas ultimas tocar mais rápido) More fast in the end.
G|--------------------------------------------------|
D|--------------------------------------------------|
A|--------------------------------------------------|
E|--2--2--------------5--5------0--0----------------|

G|--------------------------------------------------|
D|--------------------------------------------------|
A|--------------------5--5--------------------------|
E|--2--2------------------------0--0----------------|

G|--------------------------------------------------|
D|--------------------------------------------------|
A|--------------------------------------------------|
E|--2--2--------------5--5------0--0----------------|
                                   
G|--------------------------------------------------|
D|--------------------------------------------------|
A|--------------------5--5--------------------------|
E|--2--2--------------------------------------------|


G|--------------------------2---1--------------------|
D|-------------------------------------4----2--------|
A|--0----0----0----0----0-----0-----0----0----0------|
E|---------------------------------------------------| 

G|---------------------------------------------------|
D|---------------------------------------------------|
A|---------------------------------------------------|
E|--2--0--2-------4--5--------0--2--4--5--2—-0-------|

G|---------------------------------------------------|
D|---------------------------------------------------|
A|---------------------------------------------------|
E|--5-5---------4--0---------------------------------|
                                                     
G|---------------------------------------------------|
D|-------4-4----4-4---4-4---4-4---4-4---4-4---4-4----|
A|---------------------------------------------------|
E|-----2-----2-----2-----2-----2-----2-----2-----2---|

G|---------------------------------------------------|
D|---------------------------------------------------|
A|---------------------------------------------------|
E|--5-----4----0---------2—-0--2---4--5----4--0------|
                
G|---------------------------------------------------|
D|---------------------------------------------------|
A|----------------------5-5----7-7-------------------|
E|--2--0--2------4-----------------------------------|

G|---------------------------------------------------|
D|---------------------------------------------------|
A|---------------------------------------------------|
E|--2--2--------------5--5------0--0-----------------|

G|---------------------------------------------------|
D|---------------------------------------------------|
A|--------------------5--5---------------------------|
E|--2--2------------------------0--0-----------------|

G|---------------------------------------------------|
D|---------------------------------------------------|
A|---------------------------------------------------|
E|--2--2--------------5--5------0--0-----------------|
                                          
G|--------------------------------------------------|
D|--------------------------------------------------|
A|--------------------5--5--------------------------|
E|--2--2--------------------------------------------|  

G|--------------------------------------------------|
D|--------------------------------------------------|
A|--------------------------------------------------|
E|--2--2--------------5--5------0--0----------------|

G|--------------------------------------------------|
D|--------------------------------------------------|
A|--------------------5--5--------------------------|  
E|--2--2------------------------0--0----------------|

Ouvir a musica e tocar certo a sequencia....a tab esta correta mais o tempo você terá que ouvir a musica para saber quanto tempo ele faz a base exatamente!!!





Comments


Popular Ozzy Osbourne tabs & chords
Crazy-Train Bass Tabs
Facing Hell Bass Tabs
I Just Want You Bass Tabs
Not Going Away Bass Tabs
Dreamer 3 Tabs
Let Me Hear You Scream 1 Tabs
No More Tears 1 Tabs
Paranoid 2 Tabs
You Can't Kill Rock And Roll Tabs
Zombie Stomp Tabs


Song lyrics



↑ Back to top | Tablatures and chords are parodies/interpretations of the original songs. You may use it for private study, scholarship, research or language learning purposes only
© 2014 AZChords.com Contact us | Privacy policy | DMCA | Add/correct tabs | Request tabs | Top 50 tabs