>
 >
Bark At The Moon 3

Bark At The Moon 3 Guitar Tabs

Ozzy Osbourne - Bark At The Moon 3 chords, tabs, tablatures, lyrics

Guitar lessons | Add/correct | Request | Top 50 tabs Artists:  A B C D E F G H I J K L M N O P Q R S T U V W X Y Z 0-9

Bark At The Moon 3 Guitar Tabs – Ozzy Osbourne

CD, Sheet music, Poster

Do you like Bark At The Moon 3? Share with your friends now
Bass TabsBass Tabs v2Drum TabsTabsTabs v2Tabs v3
#------------------------------------------------------------------------------##

                         BARK AT THE MOON (SOLO SECTION)
                          As recorded by Ozzy Osbourne
                     (From the 1984 Album BARK AT THE MOON)

Words by Ozzy Osbourme
Music by Ozzy Osbourne
Arranged by Mike Fairchild

Gtr I (E A D G B E) - 'Untitled'
Gtr II (E A D G B E) - 'Untitled'

  D5                              C5
 4/4
  Gtr II
   Q.  E E   Q    E        Q.   E  Q        Q
   |   | |   |    |        |    |  |        |
   /   / /   /    /        /    /  /        /

  Gtr I
   ~~~
                                   |--3--|
   H.          E  E       +H       E  E  E  Q
|----------------------|----------10--------------|
|-13-------------13b15-|-(13)--------13p10--------|
|----------------------|-------------------12b14r=|
|----------------------|--------------------------|
|----------------------|--------------------------|
|----------------------|--------------------------|
|
| Gtr II
|  Q.  E E Q   E           Q.   E  Q     Q
|----------------------|--------------------------|
|----------------------|--------------------------|
|--7---7-7-7---7-------|---7----7--5-----5--------|
|--7---7-7-7---7-------|---7----7--5-----5--------|
|--5---5-5-5---5-------|---5----5--3-----3--------|
|----------------------|--------------------------|


  D5
    Q.        E  E      Q    E
    |         |  |      |    |
    /         /  /      /    /

                 ~~
   +E   S  S  E  E  +E  E  E E
|---------------------------------|
|---------------------------------|
|-(12)-12-10-12-10-(10)-9-10-9----|
|---------------------------------|
|---------------------------------|
|---------------------------------|
|
|   Q.        E  E      Q    E
|---------------------------------|
|---------------------------------|
|---7---------7--7------7----7----|
|---7---------7--7------7----7----|
|---5---------5--5------5----5----|
|---------------------------------|


  D5            C5
   Q.         E  Q    Q
   |          |  |    |
   /          /  /    /

   S  S  E E  E  Q.      S  S
|-----------------------------|
|-----------------------------|
|-10--9----9------------------|
|-------12---10S12------------|
|-----------------------10-12-|
|-----------------------------|
|
|  Q.      E  Q     Q
|-----------------------------|
|-----------------------------|
|--7-------7--5-----5---------|
|--7-------7--5-----5---------|
|--5-------5--3-----3---------|
|-----------------------------|


  Bb5                                           Bb5                    A5
   Q.              E     E          Q       E   Q.          E      Q   Q
   |               |     |          |       |   |           |      |   |
   /               /     /          /       /   /           /      /   /

   S   S  S  S  S  S  S  S     +E   S  S  Q     q     S  S  E     +H
|---------------------------------------------|------------15b17-(15)------|
|---------------------------------------------|-----/13-13-----------------|
|--------------------10h12b14-(12)-12p10-12s==|=2--------------------------|
|-10-----12----10-12--------------------------|----------------------------|
|-----12----12--------------------------------|----------------------------|
|---------------------------------------------|----------------------------|
|
|  Q.           E     E         Q         E     Q.          E      Q   Q
|---------------------------------------------|----------------------------|
|---------------------------------------------|----------------------------|
|--3------------3-----3---------3---------3---|-3-----------3------3---2---|
|--3------------3-----3---------3---------3---|-3-----------3------3---2---|
|--1------------1-----1---------1---------1---|-1-----------1------1---0---|
|---------------------------------------------|----------------------------|


  G5                      A5    Bb5  A5
    H.                     E     E     W
    |                      |     |     |
    /                      /     /     /

    ~~~~
   +Q    E  E  S  S  S  S  S  S  E    +Q   E  E  S  S  E  +E   E
|-(15)--15-13-12h13p12----12-------|------------17p13------------|
|----------------------15----13S15-|-(15)-13-15-------15-(15)-13-|
|----------------------------------|-----------------------------|
|----------------------------------|-----------------------------|
|----------------------------------|-----------------------------|
|----------------------------------|-----------------------------|
|
|   H.                     E     E     W
|----------------------------------|-----------------------------|
|----------------------------------|-----------------------------|
|--------------------------2-----3-|---2-------------------------|
|---5----------------------2-----3-|---2-------------------------|
|---5----------------------0-----1-|---0-------------------------|
|---3------------------------------|-----------------------------|


  D5
   Q.           E     E     Q           E
   |            |     |     |           |
   /            /     /     /           /

   E   E  S  S  S  S  S  S  S  S  S  S  S  S
|-----13-17p13-15p13----13-------------------|
|-15-----------------17----17p13-15----13h15-|
|-----------------------------------14-------|
|--------------------------------------------|
|--------------------------------------------|
|--------------------------------------------|
|
|  Q.           E     E     Q           E
|--------------------------------------------|
|--------------------------------------------|
|--7------------7-----7-----7-----------7----|
|--7------------7-----7-----7-----------7----|
|--5------------5-----5-----5-----------5----|
|--------------------------------------------|


  D5              C5         D5
    Q.       E      Q   Q    Q.              E     E     Q           E
    |        |      |   |    |               |     |     |           |
    /        /      /   /    /               /     /     /           /

                    ~~~~
   +Q.       S  S   H        E   E     S  S  S  S  S  S  S  S  S  S  S     S
|--------------------------|----------10-------------10----------------------|
|-(15)b18r==15p13-[15]-----|----13b15----13p10----10----13p10----10----------|
|--------------------------|-------------------12-------------12----12b13r12-|
|--------------------------|-------------------------------------------------|
|--------------------------|-------------------------------------------------|
|--------------------------|-------------------------------------------------|
|
|   Q.       E      Q   Q    Q.           E     E     Q           E
|--------------------------|-------------------------------------------------|
|--------------------------|-------------------------------------------------|
|---7--------7------5---5--|-7------------7-----7-----7-----------7----------|
|---7--------7------5---5--|-7------------7-----7-----7-----------7----------|
|---5--------5------3---3--|-5------------5-----5-----5-----------5----------|
|--------------------------|-------------------------------------------------|


  D5                      C5
   Q.                E     Q  Q
   |                 |     |  |
   /                 /     /  /

                 ~~~~
   S   S  S  S   E   S  S  Q  Q
|-------------------------------|
|-------------------------------|
|-10-----12----[10]-------------|
|-----12----12------12p10-12-10-|
|-------------------------------|
|-------------------------------|
|
|  Q.            E      Q     Q
|-------------------------------|
|-------------------------------|
|--7-------------7------5-----5-|
|--7-------------7------5-----5-|
|--5-------------5------3-----3-|
|-------------------------------|


  Bb5                  Bb5    C5   F5    D5
  Q.   E  E  Q   E     Q.   E  Q    Q     Q.       E  E  Q          E
  |    |  |  |   |     |    |  |    |     |        |  |  |          |
  /    /  /  /   /     /    /  /    /     /        /  /  /          /

  ~~~~~~~              ~~~~~~~
  Q.   E +Q    E S S   Q.   E +Q    Q     S  Q  E  E  E  E      S   S  S
|--------------------|-----------------|------------------------------------|
|--------------------|-----------------|-------10----10-13----(13)----------|
|----------------x-5-|-5---------------|-------10----10-12b14r=12--10-------|
|-8----7-(7)---5-----|------8-(8)--10--|-10S12----12------------------12----|
|--------------------|-----------------|------------------------------------|
|--------------------|-----------------|------------------------------------|
|
| Q.   E  E  Q   E     Q.   E  Q    Q     Q.       E  E  Q          E
|--------------------|-----------------|------------------------------------|
|--------------------|-----------------|------------------------------------|
|-3----3--3--3---3---|-3----3--5-------|--7--------7--7--7----------7-------|
|-3----3--3--3---3---|-3----3--5----3--|--7--------7--7--7----------7-------|
|-1----1--1--1---1---|-1----1--3----3--|--5--------5--5--5----------5-------|
|--------------------|--------------1--|------------------------------------|


  D5                            Bb5
   Q.           E   E  Q    E   W
   |            |   |  |    |   |
   /            /   /  /    /   /

   e   E  S  S  E  +E  Q.       S S S S S S S S S S S S S S S S
|-----------------------------|------------------------------------|
|-12--10---------------x\-----|------------------------------------|
|-12--10---------------x\-----|------------------------------------|
|--------12p10-12-(12)--------|-----------------------5-7-5-7-8----|
|-----------------------------|---------5---5-7-8-7-8--------------|
|-----------------------------|-6-5-6-8---8------------------------|
|
|  Q.        E  E   Q     E     W
|-----------------------------|------------------------------------|
|-----------------------------|------------------------------------|
|--7---------7--7---7-----7---|-3----------------------------------|
|--7---------7--7---7-----7---|-3----------------------------------|
|--5---------5--5---5-----5---|-1----------------------------------|
|-----------------------------|------------------------------------|


  Bb5              Bb5        C5
  +H               Q   Q      W
   |               |   |      |
   /               /   /      /

                   ~
   S S S S S S S S Q  +Q      S S S S S  S S S  S S  S S S S S  S
|---------------------------|----------------------------------------|
|----------5---5-6-8--(8)\--|----------------------------------------|
|--5---5-7---7--------------|----------------------------------------|
|----8----------------------|--------------------------7-8-7-8-10----|
|---------------------------|-------5-7----7-8-10-8-10---------------|
|---------------------------|-8-6-8-----10---------------------------|
|
|  H               Q   Q      W
|---------------------------|----------------------------------------|
|---------------------------|----------------------------------------|
|--3---------------3---3----|-5--------------------------------------|
|--3---------------3---3----|-5--------------------------------------|
|--1---------------1---1----|-3--------------------------------------|
|---------------------------|----------------------------------------|


  C5                   C5           Am
  +H                    Q    Q       H                 +E     E    E    E
   |                    |    |       |                  |     |         |
   /                    /    /       /                  /     /         /

                        ~~
   S  S S S  S S  S  S  Q   +Q       S S  S S S S S  S  S   S S S  S S  S S
|---------------------------------|--------------------------------------------|
|---------------------------------|--------------------------------------------|
|--7----7-9-10-9-10-12-14--(14)\--|---------------------------------------7----|
|----10---------------------------|---------------------7-----7-8-10-8-10------|
|---------------------------------|---------7-8-7-8-10-----10------------------|
|---------------------------------|-10-8-10------------------------------------|
|
|  H                    Q    Q       H                 +E     E    E    E
|---------------------------------|--------------------------------------------|
|---------------------------------|--1-----------------(1)----1---------1------|
|--5--------------------5----5----|--2-----------------(2)----2---------2------|
|--5--------------------5----5----|--2-----------------(2)----2---------2------|
|--3--------------------3----3----|--0-----------------(0)----0---------0------|
|---------------------------------|--------------------------------------------|


  Bb
  H..                                        E
  |                                          |
  /                                          /

  S    S S  S  S  S  S  S  S  S  S  S  S  S  S  S
|-------------------------------------10-10-10-12----|
|----------------------10-11-10-11-13----------------|
|-9------9-10-12-10-12-------------------------------|
|-----12---------------------------------------------|
|----------------------------------------------------|
|----------------------------------------------------|
|
| H..                                        E
|----------------------------------------------------|
|-3------------------------------------------3-------|
|-3------------------------------------------3-------|
|-3------------------------------------------3-------|
|-1------------------------------------------1-------|
|----------------------------------------------------|


  Bm
   H..                                                           E
   |                                                             |
   /                                                             /

   |-------6--------|  |-----6-----|  |-----5-----|  |------6-------|
   S    S  S  S  S  S  E  S  S  S  S  S  S  S  S  S  S  S  S  S  S  S
|-13---12-10----------------10-12-13-15-13-12----------------12-13-15----|
|------------13-12-10-11-13-------------------16-15-12-13-15-------------|
|------------------------------------------------------------------------|
|------------------------------------------------------------------------|
|------------------------------------------------------------------------|
|------------------------------------------------------------------------|
|
|  H..                                                           E
|------------------------------------------------------------------------|
|--3-------------------------------------------------------------3-------|
|--4-------------------------------------------------------------4-------|
|--4-------------------------------------------------------------4-------|
|--2-------------------------------------------------------------2-------|
|------------------------------------------------------------------------|


  C5
   H..                                                              E
   |                                                                |
   /                                                                /

   |-------6--------|  |-----6------|  |------6-------|  |------6------|
   S    S  S  S  S  S  S  S   E  S  S  S  S  S  S  S  S  S  S  S S  S  S
|-16---17-13-13-----------------14-16-18-17-15-15----------------x-17h18----|
|---------------17-15-13h15-/17-------------------18-17-15h17S19------------|
|---------------------------------------------------------------------------|
|---------------------------------------------------------------------------|
|---------------------------------------------------------------------------|
|---------------------------------------------------------------------------|
|
|  H..                                                              E
|---------------------------------------------------------------------------|
|-------------------------------------------------------------------8-------|
|--5----------------------------------------------------------------7-------|
|--5----------------------------------------------------------------5-------|
|--3------------------------------------------------------------------------|
|---------------------------------------------------------------------------|


   ~~~~~~~~~~~~~~~~~~~~~~~~~~~~~~~~~~~~~~~~~~~~~~~~~~~~~~~~~~~~~
   Q.      E  +Q      Q                  +E     E      Q      H
|-17------17-(17)----17---------------|-(17)---17-----17-----17------------|
|-------------------------------------|------------------------------------|
|-------------------------------------|------------------------------------|
|-------------------------------------|------------------------------------|
|-------------------------------------|------------------------------------|
|-------------------------------------|------------------------------------|
|
|  E  S S  S   S   E  S S S S  E S S      S  S  E S S  S S E  S S S S E
|-------------------------------------|------------------------------------|
|-10--------------10----------10------|---------8----------8----------8----|
|--9---------------9-----------9------|---------9----------9----------7----|
|--7---------------7-----------7------|---------7----------7----------5----|
|-----0-0--0---0------0-0-0-0----0-0--|---0--0----0-0--0-0----0-0-3-0------|
|-------------------------------------|------------------------------------|


   ~~~~~~~~~~~~~~~~~~~~~~~~~~~~~~~~~~~~~~~~~~~~~~~~~~~~~~
   Q.          E    +Q       Q        +E     E  +Q     H
|-17----------17---(17)-----17-----|-(17)---17-(17)---17----------|
|----------------------------------|------------------------------|
|----------------------------------|------------------------------|
|----------------------------------|------------------------------|
|----------------------------------|------------------------------|
|----------------------------------|------------------------------|
|
|  E  S S S S  E S   S  S S  E S S     S  S  E   E  E  E E E E
|----------------------------------|------------------------------|
|--8-----------8-------------8-----|---------6------6----6---8----|
|--7-----------7-------------7-----|---------5------4----4---7----|
|--5-----------5-------------5-----|---------3------3----3---5----|
|-----0-0-0-0----0---0--0-0----0-0-|---0--0-----------------------|
|----------------------------------|------------------------------|


   E S S S S  E S S S S  E S S   S S E S S S S E S S S S E
|------------------------------|------------------------------|
|-10---------10---------10-----|-----8---------8---------8----|
|--9----------9----------9-----|-----9---------9---------7----|
|--7----------7----------7-----|-----7---------7---------5----|
|----0-0-0-0----0-0-0-0----0-0-|-0-0---0-0-0-0---0-0-5p0------|
|------------------------------|------------------------------|


  E S S S S E S S S S E S S   E E E E E E E E
|---------------------------|--------------------*|
|-8---------8---------8-----|--------------------*|
|-7---------7---------7-----|--------------------*|
|-5---------5---------5-----|--------------------*|
|---0-0-0-0---0-0-0-0---0-0-|-1-0-1-3-1-0--------*|
|---------------------------|-------------3-1----*|


Duration Legend
---------------
W - whole; H - half; Q - quarter; E - 8th; S - 16th; T - 32nd; X - 64th; a - acciaccatura
+ - note tied to previous; . - note dotted; .. - note double dotted
Uncapitalized letters represent notes that are staccato (1/2 duration)
Irregular groupings are notated above the duration line
Duration letters will always appear directly above the note/fret number it represents the
duration for.  Duration letters with no fret number below them represent rests.  Multi-
bar rests are notated in the form Wxn, where n is the number of bars to rest for.  Low
melody durations appear below the staff

Tablature Legend
----------------
 h   - hammer-on
 p   - pull-off
 b   - bend
 pb  - pre-bend
 r   - bend release (if no number after the r, then release immediately)
 /\  - slide into or out of (from/to "nowhere")
 s   - legato slide
 S   - shift slide
  - natural harmonic
[n]  - artificial harmonic
n(n) - tapped harmonic
 ~   - vibrato
 tr  - trill
 T   - tap
 TP  - trem. picking
 PM  - palm muting
\n/  - tremolo bar dip; n = amount to dip
 \n  - tremolo bar down
 n/  - tremolo bar up
/n\  - tremolo bar inverted dip
 =   - hold bend; also acts as connecting device for hammers/pulls
 <>  - volume swell (louder/softer)
 x   - on rhythm slash represents muted slash
 o   - on rhythm slash represents single note slash

Misc Legend
-----------
 |  - bar
||  - double bar
||o - repeat start
o|| - repeat end
*|  - double bar (ending)
 :  - bar (freetime)
 $  - Segno
 &  - Coda
Tempo markers -  = BPM(8/16=s8/s16), where s8 = swing 8ths, s16 = swing 16ths


***************************************************************************************
***************************************************************************************





Comments


Popular Ozzy Osbourne tabs & chords
Centre Of Eternity Bass Tabs
Dee 3 Tabs
I Dont Wanna Stop Tabs
Iron Man 1 Tabs
Iron Man Tribute Tabs
Junkie 2 Tabs
Revelation (Mother Earth) Tabs
Suicide Solution 3 Tabs
Tonight Tabs
Steal Away The Night Ukulele


Song lyrics



↑ Back to top | Tablatures and chords are parodies/interpretations of the original songs. You may use it for private study, scholarship, research or language learning purposes only
© 2014 AZChords.com Contact us | Privacy policy | DMCA | Add/correct tabs | Request tabs | Top 50 tabs