>
 >
Bark At The Moon 1

Bark At The Moon 1 Bass Tabs

Ozzy Osbourne - Bark At The Moon 1 chords, tabs, tablatures, lyrics

Guitar lessons | Add/correct | Request | Top 50 tabs Artists:  A B C D E F G H I J K L M N O P Q R S T U V W X Y Z 0-9

Bark At The Moon 1 Bass Tabs – Ozzy Osbourne

CD, Sheet music, Poster

Do you like Bark At The Moon 1? Share with your friends now
Bass TabsBass Tabs v2Drum TabsTabsTabs v2Tabs v3
                           Bark At The Moon                                 

Bass
     H.           E  E     E  H.           E     H.           E  E   
G||---------------------|---------------------|---------------------|
D||---------------------|---------------------|---------------------|
A||---------------------|--0------------------|---------------------|
E||------------------3--|---------------------|------------------0--|


  E  H.           E     E  E  E  E  E  E  E  E     E  H.           E   
---------------------|--------------------------|---------------------|
---------------------|--------------------------|---------------------|
---------------------|-----------------3--------|--0------------------|
--3------------------|-----0-----3-----------3--|---------------------|


  H.           E  E     E  H.           E     E  E  E  E  E  E  E  E   
---------------------|---------------------|--------------------------|
---------------------|---------------------|--------------------------|
---------------------|---------------------|--1--0--1--3--1--0--------|
------------------0--|--3------------------|--------------------3--0--|


  E  E  E  E  E  E  E  E     E  E  E  E  E  E  E  E   
--------------------------|--------------------------|
--------------------------|--------------------------|
--0--0--0--0--0--0--0--0--|--0--0--0--0--0--0--0--0--|
--------------------------|--------------------------|


  E  E  E  E  E  E  E  E     E  Q    E.  S E  S S E   
--------------------------|--------------------------|
--------------------------|--------------------------|
--0--0--0--0--0--0--0--0--|--0-------------3--L------|
--------------------------|-----0----3------------3--|


  E  E  E  E  E  E  E  E     E  E  E  E  E  E  E  E   
--------------------------|--------------------------|
--------------------------|--------------------------|
--0--0--0--0--0--0--0--0--|--0--0--0--0--0--0--0--0--|
--------------------------|--------------------------|


  E  E  E  E  E  E  E  E     E  E  E  E  E  E  E  E   
--------------------------|--------------------------|
--------------------------|--------------------------|
--0--0--0--0--0--0--0--0--|--1--0--1--3--1--0--------|
--------------------------|--------------------0--1--|


  E  E  E  E  S S E  E  E     E  E  E  E  S S E  E  E   
---------------------------|---------------------------|
--------------4-4----------|--------------4-4----------|
---------------------------|---------------------------|
--2--2--2--2------2--2--2--|--2--2--2--2------2--2--2--|


  E  E  E  E  S S E  E  E     E  E  E  E  E  E  E  E   
---------------------------|--------------------------|
--------------4-4----------|--------------------------|
---------------------------|--------------------------|
--2--2--2--2------2--2--2--|--2--2--2--2--2--2--2--2--|


  E  E  E  E  S S E  E  E     E  E  E  E  S S E  E  E     Q    Q    E  E  Q     
---------------------------|---------------------------|-----------------------|
--------------4-4----------|--------------4-4----------|-------2----------2----|
---------------------------|---------------------------|-----------------------|
--2--2--2--2------2--2--2--|--2--2--2--2------2--2--2--|--0---------0--0-------|


  Q    H        E  E     E  E  E  E  E  E  E  E     E  E  E  E  E  E  E  E   
----------------------|--------------------------|--------------------------|
----------------------|--------------------------|--------------------------|
----------------------|--0--0--0--0--0--0--0--0--|--0--0--0--0--0--0--0--0--|
--0----------------3--|--------------------------|--------------------------|


  E  E  E  E  E  E  E  E     E  Q    E.  S E.  S E     E  E  E  E  E  E  E  E   
--------------------------|-------------------------|--------------------------|
--------------------------|-------------------------|--------------------------|
--0--0--0--0--0--0--0--0--|--0-------------3--------|--0--0--0--0--0--0--0--0--|
--------------------------|-----0----3-----------3--|--------------------------|


  E  E  E  E  E  E  E  E     E  E  E  E  E  E  E  E   
--------------------------|--------------------------|
--------------------------|--------------------------|
--0--0--0--0--0--0--0--0--|--0--0--0--0--0--0--0--0--|
--------------------------|--------------------------|


  E  E  E  E  E  E  E  E     E  E  E  E  E  E  E  E   
--------------------------|--------------------------|
--------------------------|--------------------------|
--1--0--1--3--1--0--------|--0--0--0--0--0--0--0--0--|
--------------------3--0--|--------------------------|


  E  E  E  E  E  E  E  E     E  E  E  E  E  E  E  E   
--------------------------|--------------------------|
--------------------------|--------------------------|
--0--0--0--0--0--0--0--0--|--0--0--0--0--0--0--0--0--|
--------------------------|--------------------------|


  E  Q    E.  S E  S S E     E  E  E  E  E  E  E  E   
--------------------------|--------------------------|
--------------------------|--------------------------|
--0-------------3--L------|--0--0--0--0--0--0--0--0--|
-----0----3------------3--|--------------------------|


  E  E  E  E  E  E  E  E     E  E  E  E  E  E  E  E   
--------------------------|--------------------------|
--------------------------|--------------------------|
--0--0--0--0--0--0--0--0--|--0--0--0--0--0--0--0--0--|
--------------------------|--------------------------|


  E  E  E  E  E  E  E  E     E  E  E  E  S S E  E  E   
--------------------------|---------------------------|
--------------------------|--------------4-4----------|
--1--0--1--3--1--0--------|---------------------------|
--------------------0--1--|--2--2--2--2------2--2--2--|


  E  E  E  E  S S E  E  E     E  E  E  E  S S E  E  E   
---------------------------|---------------------------|
--------------4-4----------|--------------4-4----------|
---------------------------|---------------------------|
--2--2--2--2------2--2--2--|--2--2--2--2------2--2--2--|


  E  E  E  E  E  E  E  E     E  E  E  E  S S E  E  E   
--------------------------|---------------------------|
--------------------------|--------------4-4----------|
--------------------------|---------------------------|
--2--2--2--2--2--2--2--2--|--2--2--2--2------2--2--2--|


  E  E  E  E  S S E  E  E     Q    Q    S S Q    E     Q    H.            
---------------------------|------------------------|--------------------|
--------------4-4----------|-------2--------2-------|--------------------|
---------------------------|------------------------|--------------------|
--2--2--2--2------2--2--2--|--0---------0-0---------|--0-----------------|


  Q    E  E  E  E  E  E     E  E  E  E  E  E  E  E     E  Q    Q    E  E  E   
-------------------------|--------------------------|------------------------|
-------------------------|--------------------------|------------------------|
--0----0--0--3--5-----2--|--L-----------------------|------------------------|
-------------------------|-----3--3--3--3--3--3--3--|--3--1----1----1--1--1--|


  E  Q    Q    E  E  E     Q    E  E  E  E  E  E     E  E  E  E  E  E  E  E   
------------------------|-------------------------|--------------------------|
------------------------|-------------------------|--------------------------|
--5--7----7----7--7--7--|--0----0--0--3--5-----2--|--L-----------------------|
------------------------|-------------------------|-----3--3--3--3--3--3--3--|


  E  Q    Q    E  E  E     E  Q    Q    Q    E     E  S H        E.  E   
------------------------|-----------------------|-----------------------|
------------------------|-----------------------|-----------------------|
------------------------|--5--7----7----7-------|-----------------------|
--3--1----1----1--1--1--|--------------------0--|--1--L--------------0--|


  E  S H.           S    W                   E  E  E  E  E  E  E  E   
----------------------|-------------------|--------------------------|
----------------------|-------------------|--------3-----5--3--------|
----------------------|-------------------|-----5-----5--------5-----|
--1--L----------------|--3----------------|-----------------------0--|


  E  S H        E.  E     E  S H.           S    W                 
-----------------------|----------------------|-------------------|
-----------------------|----------------------|-------------------|
-----------------------|----------------------|-------------------|
--1--L--------------0--|--1--L----------------|--3----------------|


  E  E  E  E  E  E  E  E     E  S H        E.  E     E  S H.           S  
--------------------------|-----------------------|----------------------|
--------3-----5-----3-----|-----------------------|----------------------|
-----5-----5-----5--------|-----------------------|----------------------|
-----------------------0--|--1--L--------------0--|--1--L----------------|


  W                   E  Q    Q    Q    E     Q    E  E  Q    E  E   
-------------------|-----------------------|------------------------|
-------------------|-----5----3------------|-------------3----L--2--|
-------------------|---------------5-------|------------------------|
--3----------------|--------------------0--|--1----1--1-------------|


  Q    E  E  Q    E  E     Q    E  E  E  E  E  E     E  E  E  E  E  E  Q     
-------------7----L-----|-------------------------|-------------------------|
------------------------|-------------------------|-------------------------|
--5----5--5----------3--|--1----1--1--1--1--1--1--|--1--1--1--1--1-----1----|
------------------------|-------------------------|-------------------------|


  E  E  E  E  E  E  E  E     E  Q    E  E  E  E  E     Q    E  E  E  E.  S E   
--------------------------|-------------------------|-------------------------|
--------------------------|-------------------------|-------------------------|
--3--3--3--3--3--3--3--3--|--3--3-------3-----3-----|--5-------5--5--5-----5--|
--------------------------|-------------------------|-------------------------|


  E  Q    E  Q    Q       Q    E  E  E  Q    E     E  Q    E  E  E  E  E   
-----------------------|------------------------|-------------------------|
-----------------------|------------------------|-------------------------|
--5--5----5--3----3----|--5-------5--5--5----5--|--5--5----5--3-----3-----|
-----------------------|------------------------|-------------------------|


  Q    E  E  E  Q    E     E  Q    E  Q    Q       H        E.  S E  E   
------------------------|-----------------------|-----------------------|
------------------------|-----------------------|-----------------------|
--1-------1--1--1----1--|--1--1----1--1----0----|-----------------0--1--|
------------------------|-----------------------|--3--------L-----------|


  H.           Q       Q    E  E  E  Q    E     E  Q    E  E  E  E  E   
--------------------|------------------------|-------------------------|
--------------------|------------------------|-------------------------|
--0------------3----|--5-------5--5--5----5--|--5--5----5--3-----3-----|
--------------------|------------------------|-------------------------|


  Q    E  E  E  Q    E     E  Q    E  E  E  E  E     Q    E  E  E  Q    E   
------------------------|-------------------------|------------------------|
------------------------|-------------------------|------------------------|
--5-------5--5--5----5--|--5--5----5--3-----3-----|--1-------1--1--1----1--|
------------------------|-------------------------|------------------------|


  E  Q    E  Q    Q       Q    E  E  E  Q    E     Q    E  E  E  E  E  E   
-----------------------|------------------------|-------------------------|
------------------3----|------------------------|-------------------------|
--1--1----1--3---------|--5-------5--5--5----5--|--5-------5--5-----5-----|
-----------------------|------------------------|-------------------------|


  Q    E  E  E  Q    E     E  Q    E  E  E  E  E     Q    E  E  E  Q    E   
------------------------|-------------------------|------------------------|
------------------------|-------------------------|------------------------|
--1-------1--1--1----1--|--1--1----1--1-----1-----|--3-------3--3--3----3--|
------------------------|-------------------------|------------------------|


  E  Q    E  E  E  E  E     Q    E  E  E  Q    E     Q    E  E  E  Q    E   
-------------------------|------------------------|------------------------|
-------------------------|------------------------|------------------------|
--3--3----3--3-----3-----|--0-------0--0--0----0--|--1-------1--1--1----1--|
-------------------------|------------------------|------------------------|


  Q    E  E  E  Q    E     Q    E  E  E  Q    E     E  H.           E   
------------------------|------------------------|---------------------|
------------------------|------------------------|---------------------|
--2-------2--2--2----2--|--3-------3--3--3-------|--0------------------|
------------------------|---------------------3--|---------------------|


  H.           E  E     E  H.           E     E  E  E  E  E  E  E  E   
---------------------|---------------------|--------------------------|
---------------------|---------------------|--------------------------|
---------------------|---------------------|-----------------3--------|
------------------0--|--3------------------|-----0-----3-----------3--|


  E  H.           E     H.           E  E     E  H.           E   
---------------------|---------------------|---------------------|
---------------------|---------------------|---------------------|
--0------------------|---------------------|---------------------|
---------------------|------------------0--|--3------------------|


  E  E  E  E  E  E  E  E     E  E  E  E  E  E  E  E   
--------------------------|--------------------------|
--------------------------|--------------------------|
--1--0--1--3--1--0--------|--0--0--0--0--0--0--0--0--|
--------------------3--0--|--------------------------|


  E  E  E  E  E  E  E  E     E  E  E  E  E  E  E  E   
--------------------------|--------------------------|
--------------------------|--------------------------|
--0--0--0--0--0--0--0--0--|--0--0--0--0--0--0--0--0--|
--------------------------|--------------------------|


  E  Q    E  S S E  S S E     E  E  E  E  E  E  E  E   
---------------------------|--------------------------|
---------------------------|--------------------------|
--0--------------3--L------|--0--0--0--0--0--0--0--0--|
-----0----3--L----------3--|--------------------------|


  E  E  E  E  E  E  E  E     E  E  E  E  E  E  E  E   
--------------------------|--------------------------|
--------------------------|--------------------------|
--0--0--0--0--0--0--0--0--|--0--0--0--0--0--0--0--0--|
--------------------------|--------------------------|


  E  E  E  E  E  E  E  E     E  E  E  E  S S E  E  E   
--------------------------|---------------------------|
--------------------------|--------------4-4----------|
--1--0--1--3--1--0--------|---------------------------|
--------------------0--1--|--2--2--2--2------2--2--2--|


  E  E  E  E  S S E  E  E     E  E  E  E  S S E  E  E   
---------------------------|---------------------------|
--------------4-4----------|--------------4-4----------|
---------------------------|---------------------------|
--2--2--2--2------2--2--2--|--2--2--2--2------2--2--2--|


  E  E  E  E  E  E  E  E     E  E  E  E  S S E  E  E   
--------------------------|---------------------------|
--------------------------|--------------4-4----------|
--------------------------|---------------------------|
--2--2--2--2--2--2--2--2--|--2--2--2--2------2--2--2--|


  E  E  E  E  S S E  E  E     Q    Q    E  E  Q       Q    H.            
---------------------------|-----------------------|--------------------|
--------------4-4----------|-------2----------2----|--------------------|
---------------------------|-----------------------|--------------------|
--2--2--2--2------2--2--2--|--0---------0--0-------|--0-----------------|


  Q    E  E  E  E  E  E     E  E  E  E  E  E  E  E     E  Q    Q    E  E  E   
-------------------------|--------------------------|------------------------|
-------------------------|--------------------------|------------------------|
--0----0--0--3--5-----2--|--L-----------------------|------------------------|
-------------------------|-----3--3--3--3--3--3--3--|--3--1----1----1--1--1--|


  E  Q    Q    E  E  E     Q    E  E  E  E  E  E     E  E  E  E  E  E  E  E   
------------------------|-------------------------|--------------------------|
------------------------|-------------------------|--------------------------|
--5--7----7----7--7--7--|--0----0--0--3--5-----2--|--L-----------------------|
-----0------------------|-------------------------|-----3--3--3--3--3--3--3--|


  E  Q    Q    E  E  E     E  Q    Q    E  E  E     Q    E  E  E  E  E  E   
------------------------|------------------------|-------------------------|
------------------------|------------------------|-------------------------|
------------------------|--5--7----7----7-----7--|--0----0--0--3--5-----2--|
--3--1----1----1--1--1--|---------------------0--|-------------------------|


  E  E  E  E  E  E  E  E     E  Q    Q    E  E  E     E  Q    Q    E  E  E   
--------------------------|------------------------|------------------------|
--------------------------|------------------------|------------------------|
--L-----------------------|------------------------|--5--7----7----7--7--7--|
-----3--3--3--3--3--3--3--|--3--1----1----1--1--1--|-----0------------------|


  Q    E  E  E  E  E  E     E  E  E  E  E  E  E  E     E  Q    Q    E  E  E   
-------------------------|--------------------------|------------------------|
-------------------------|--------------------------|------------------------|
--0----0--0--3--5-----2--|--L-----------------------|------------------------|
-------------------------|-----3--3--3--3--3--3--3--|--3--1----1----1--1--1--|


  E  E  E  E  E  E  E  E     Q    E  E  E  E  E  E     E  E  E  E  E  E  E  E   
--------------------------|-------------------------|--------------------------|
--------------------------|-------------------------|--------------------------|
--5--7--7-----7--7--7--7--|--0----0--0--3--5-----2--|--L-----------------------|
--------------------0-----|-------------------------|-----3--3--3--3--3--3--3--|


  E  Q    Q    E  E  E     E  Q    Q    E  E  E     Q    E  E  E  E  E  E   
------------------------|------------------------|-------------------------|
------------------------|------------------------|-------------------------|
------------------------|--5--7----7----7-----7--|--0----0--0--3--5-----2--|
--3--1----1----1--1--1--|------------------------|-------------------------|


  E  E  E  E  E  E  E  E     E  Q    E  S S E  E  E   
--------------------------|--------------------------|
--------------------------|--------------------------|
--L-----------------------|--------------------------|
-----3--3--3--3--3--3--3--|--3--1----1--0-0-1--1--1--|


  E  E  E  E  E  E  E  E     Q    H        Q                                   
--------------------------|---------------------|----|----|----|----|----|----|
-----2--------2-----------|---------------------|----|----|----|----|----|----|
--------------------------|---------------------|----|----|----|----|----|----|
--0--------0--------0--3--|--5------------------|----|----|----|----|----|----|


----|----||
----|----||
----|----||
----|----||




Duration Legend
---------------
W - whole
H - half
Q - quarter
E - 8th
S - 16th
T - 32nd
X - 64th
. - note dotted
|-n-|  - n-tuplets


Tablature Legend
----------------
L - tied note
x - dead note
g - grace note
(n) - ghost note
> - accentuded note
NH - natural harmonic
AH - artificial harmonic
TH - tapped harmonic
SH - semi harmonic
PH - pitch harmonic
h - hammer on
p - pull off
b - bend
br - bendRelease
pb - preBend
pbr - preBendRelease
brb - bendReleaseBend
\n/ - tremolo bar dip
\n - tremolo bar dive
-/n - tremolo bar Release up
/n\ - tremolo bar inverted dip
/n - tremolo bar return
-\n - tremolo bar Release down
S - shift slide
s - legato slide
/ -  slide into from below or out of upwards
\ -  slide into from above or out of downwards
~ - vibrato
W - wide vibrato
tr - trill
TP - tremolo picking
T - tapping
S - slap
P - pop
< - fade in
^ - brush up
v - brush down





Comments


Popular Ozzy Osbourne tabs & chords
Over The Mountain Bass Tabs
You Can Kill Rock And Roll Bass Tabs
Alive Tabs
Crazy Train Live Tabs
Mama Im Comin Home 1 Tabs
Mr Crowley Live Tabs
Mr. Crowley Tabs
Paranoid 1 Tabs
Stayin Alive Intro Tabs
So Tired Ukulele


Song lyrics



↑ Back to top | Tablatures and chords are parodies/interpretations of the original songs. You may use it for private study, scholarship, research or language learning purposes only
© 2014 AZChords.com Contact us | Privacy policy | DMCA | Add/correct tabs | Request tabs | Top 50 tabs