» » »

Windowpane Bass tabs (ver.1)

Artists:  A B C D E F G H I J K L M N O P Q R S T U V W X Y Z # 

Windowpane Bass tabs (ver.1)

Opeth
Rating:
0/5 (0 votes)

Hard to play? Try these video lessons and learn fast.
                (1)
Capo at 2


Inspired by the July 26th show. My First tab ever >_<

(0:07)
G|-------7h9------------|
D|------------7h9-------|
A|--4/7-----------------|
E|----------------------|

(0:08)
G|-------------------------------------------------7h9------------|
D|--------4----------4-------------4---------------------7h9------|
A|-----4-----4---------4--------4-----4-------4/7-----------------|
E|--2------------2-2---------2------------------------------------|

(0:35)
G|------------------------------------6---------------------------|
D|---------------------------------6-----6------------------------|
A|--4~------4---4-4----2------4------------4--4-4----2------------|
E|----------------------------------------------------------------|

(1:11)
G|-------------------------------------------------7h9------------|
D|--------4----------4-------------4---------------------7h9------|
A|-----4-----4---------4--------4-----4-------4/7-----------------|
E|--2------------2-2---------2------------------------------------|

(1:46)
G|------------------------------------6---------------------------|
D|---------------------------------6-----6------------------------|
A|--4~------4---4-4----2------4-------------4-4-4-2---------------|
E|----------------------------------------------------------------|

(2:22) *There are variations to this riff, has to do with the 5's, you can figure it out*
G|-------------------------------------|           |-------------------------|
D|-------------------------------------|           |---------8---------------|
A|-------------------------------------| x2 then   |------8----8-------------|  x2
E|--5--55--7--7--7----5--55-5/8--8--8--|           |---6----------2--2-2-----|

(3:47)
G|--------------------------------------------------------------|
D|--------------------------------------------------------------|
A|---9---------7--6----------3-3-4-5--7--/10--------------------|
E|------8--9---------8--7--8------------------------------------|

(4:36)
G|-------------------------------------------------------------------|
D|----4---------4--------3---4---------3----4------------------------|
A|---------5---------5------------5--------------5-------------------|
E|-------------------------------------------------------------------|

(5:57)
G|-------------------------------------------------7h9------------|
D|--------4----------4-------------4---------------------7h9------|
A|-----4-----4---------4--------4-----4-------4/7-----------------|
E|--2------------2-2---------2------------------------------------|

(6:32)
G|------------------------------------6---------------------------|
D|---------------------------------6-----6------------------------|
A|--4~------4---4-4----2------4------------4--4-4----2------------|
E|----------------------------------------------------------------|

(7:31) END
G|------------------
D|------------------
A|------4~~~-------- Let ring till the end.
E|------------------
            
Hard to play? Try these video lessons and learn fast. | Correct




comments powered by Disqus
↑ Back to top | Tablatures and chords are parodies/interpretations of the original songs. You may use it for private study, scholarship, research or language learning purposes only