» » »

To Bid You Farewell Bass tabs (ver.1)

Artists:  A B C D E F G H I J K L M N O P Q R S T U V W X Y Z # 

To Bid You Farewell Bass tabs (ver.1)

Opeth
Rating:
0/5 (0 votes)

Hard to play? Try these video lessons and learn fast.
                Notes: This tab is mostly complete and kinda correct. I left out some 
licks and odd notes here and there, but if you can play this song you 
should damn well be able to improvise the missing parts.

Things would be so much easier if everyone had a 5-string bass. Since 
not everyone does (myself included), I tabbed the song for 4-strings, 
with a dropped D-tuning.

RIFF 1: 
G:|----------------|---------7h9-7--|-9-7-9-12-11----|9h7h9-----------|
D:|------2---------|--7h9-7---------|----------------|-----9--9-9-----|
A:|----------------|----------------|----------------|------------9---|
D:|-2--2---2--2--0-|0---------------|----------------|--------------9-|

RIFF 2: 
G:|----------------|----------11-11-|9h11h9\6-6-6----|
D:|------2---0-----|-7h9-7----------|-------------9-8|
A:|----------------|----------------|----------------|
D:|-2--2---2-------|----------------|----------------|

G:|----------------|----------11-11-|9h11h9-11-------|
D:|------2---0-----|-7h9-7----------|----------------|
A:|----------------|----------------|----------------|
D:|-2--2---2-------|----------------|----------------|

RIFF 3: The ending might be a bit off...
G:|----------------|----------------|
D:|------2---0-----|-7h9-7----2-----|
A:|----------------|--------------0-|
D:|-2--2---2-------|--------2---2---|

RIFF 4:
G:|----------------|----------------|----------------|----------------|
D:|---------------3|----------------|----------------|----------------|
A:|--5---------3h5-|3h5-------------|----5-----------|----5-----------|
D:|----0-----------|---0------------|--0-------------|--0-------------|

RIFF 5:             Lyrics start here
G:|----------------|----------------|----------------|
D:|----------------|----------------|----------------|
A:|0-1--------5--5-|-5-5---0-1------|-5-5---0-1------|
D:|------5---------|-------------5--|-------------5--|

RIFF 6: Under guitar solo
                    Solo starts here
G:|----------------|----------------|----------------|----------------|
D:|----------------|----------------|----------------|----------------|
A:|---------5---5--|-5---5---5---5--|----------------|----------------|
D:|----------------|----------------|-8--8-7-5--3-2-0|--0-2-3--0---0--|

Lyrics again...
G:|----------------|----------------|
D:|----------------|----------------|
A:|-5-5---0-1------|-5-5---0-1------|
D:|-------------5--|-------------5--|

RIFF 7:
G:|----------------|
D:|----------------|
A:|---5------------|
D:|-0----0-0---(0)-|

RIFF 8: Played quite a number of times... 
G:|-----7-7-7\5-5-4|-2/4------------|
D:|----------------|----------------|
A:|----------------|----------------|
D:|-2--------------|----------------|

RIFF 9: Action starts...
G:|----------------|----------------|----------------|
D:|--------4h5-5---|---5-----4h5-4--|-2h4------------|
A:|----------------|----------------|------2---------|
D:|-2--2-2-------2-|-2---2-2--------|----------------|

                                                       
G:|----------------|----------------|----------------|
D:|--------4h5-5---|---5-----4h5h5--|-4h5h4---2------|
A:|----------------|----------------|----------------|
D:|-2--2-2-------2-|-2---2-2--------|----------------|

RIFF 10: Played once 
G:|----------------|
D:|----------------|
A:|----------------|
D:|-2-2-2--2-2-2---|

RIFF 11: Again, might not be entirely correct
G:|----------------|----------------|----------------|----------------|
D:|----------------|----------------|----------------|----------------|
A:|-3-5-5-5--------|---0-0-0-3-3-3-3|-3-5-5-5--------|---5-3-2-0------|
D:|---------5-5-5-5|-5--------------|---------5-5-5-5|-5---------5-3-5|

RIFF 12: After the acoustic interlude
G:|----------------|-4-4-4h5-2-0-2--|
D:|-3-5-5-----2-2--|---------------3|
A:|--------3-------|----------------|
D:|----------------|----------------|

RIFF 13: Played until the end...
G:|----------------|----------------|
D:|-----------2----|-2----0---------|
A:|-0--------------|-----------0----|
D:|----------------|----------------|
            
Hard to play? Try these video lessons and learn fast. | Correct




comments powered by Disqus
↑ Back to top | Tablatures and chords are parodies/interpretations of the original songs. You may use it for private study, scholarship, research or language learning purposes only