>
 >
The Funeral Portrait

The Funeral Portrait Bass Tabs

Opeth - The Funeral Portrait chords, tabs, tablatures, lyrics

Guitar lessons | Add/correct | Request | Top 50 tabs Artists:  A B C D E F G H I J K L M N O P Q R S T U V W X Y Z 0-9

The Funeral Portrait Bass Tabs – Opeth

CD, Sheet music, Poster

Do you like The Funeral Portrait? Share with your friends now
Bass TabsBass Tabs v2Tabs
G||--------------|--------------|--------------|--------------|--------------|
D||--------------|--------------|--------------|--------------|--------------|
A||--------------|--------------|--------------|--------------|--------------|
E||--------------|--------------|--------------|--------------|--------------|


                                                              7x
--------------|--------------|--------------||----------------||
--------------|--------------|--------------||*--------------*||
--------------|--------------|--------------||*--------------*||
--------------|--------------|--------------||----------------||


                          7x                             3x
--------------------------||-----------------------------||
*------------------------*||*---------------------------*||
*-----------5-7--7-------*||*------------8-10--10-------*||
---0--0-5-7--------0-3-5--||---3--3-8-10----------3-6-8--||


                          6x                         
--------------------------||------------------------|
*------------------------*||------------------------|
*-----------5-7--7-------*||-----------5-7--7-------|
---0--0-5-7--------0-3-5--||--0--0-5-7--------0-3-5-|


                              2x                            
|-----------------------------||---------------------------|
|*---------------------------*||---------------------------|
|*------------8-10--10-------*||------------8-10--10-------|
|---3--3-8-10----------3-6-8--||--3--3-8-10----------3-6-8-|


                                                      
--------------------------|--------------------------|
--------------------------|--------------------------|
--4-4-4-4-3-3-3-2-2-2-----|--------------------------|
----------------------5-5-|--5-5-5-5-6-6-5-5-0-3-3-0-|


                                                                              
--------------------------|--------------------------|-----------------------|
--------------------------|--------------------------|-----------3-2-0-------|
--------------------------|--------------------------|-----------------3-2---|
--5-5-5-5-6-6-5-5-0-3-3-0-|--5-5-5-5-6-6-5-5-0-3-3-0-|--4--3--0------------3-|


                                                        
|---------------------------|--------------------------|
|*--------------------------|--------------------------|
|*--------------------------|--------------------------|
|---5-5-5-5-6-6-5-5-0-3-3-0-|--5-5-5-5-6-6-5-5-0-3-3-0-|


                                                   4x                        
--------------------------|------------------------||-----------------------|
--------------------------|-----------3-2-0-------*||-----------3-2-0-------|
--------------------------|-----------------3-2---*||-----------------3-2---|
--5-5-5-5-6-6-5-5-0-3-3-0-|--4--3--0------------3--||--4--3--0------------3-|


                                                   
--------------------------------------------------|
--------------------------------------------------|
--7-7-7-7-7-7-7-7-7-7-7-7-7-7-7-7-7-7-------------|
--0-0-0-0-0-0-0-0-0-0-0-0-0-0-0-0-0-0-1-1-1-1/4-4-|


                                                 
------------------------------------------------|
------------------------------------------------|
------------------------------8-7-5-8-7-5-3-2---|
--0---0-0-0-1-1-1-4-4-4-0-0-0-----------------1-|


                                                   
--------------------------------------------------|
--------------------------------------------------|
--7-7-7-7-7-7-7-7-7-7-7-7-7-7-7-7-7-7-------------|
--0-0-0-0-0-0-0-0-0-0-0-0-0-0-0-0-0-0-1-1-1-1/4-4-|


                                                 
------------------------------------------------|
------------------------------------------------|
------------------------------8-7-5-8-7-5-3-2---|
--0---0-0-0-1-1-1-4-4-4-0-0-0-----------------1-|


                                                   
--------------------------------------------------|
--------------------------------------------------|
--7-7-7-7-7-7-7-7-7-7-7-7-7-7-7-7-7-7-------------|
--0-0-0-0-0-0-0-0-0-0-0-0-0-0-0-0-0-0-1-1-1-1/4-4-|


                                                 
------------------------------------------------|
------------------------------------------------|
------------------------------8-7-5-8-7-5-3-2---|
--0---0-0-0-1-1-1-4-4-4-0-0-0-----------------1-|


                                                   
--------------------------------------------------|
--------------------------------------------------|
--7-7-7-7-7-7-7-7-7-7-7-7-7-7-7-7-7-7-------------|
--0-0-0-0-0-0-0-0-0-0-0-0-0-0-0-0-0-0-1-1-1-1/4-4-|


                                                                 
------------------------------8-7-5-8-7-5-8---------------------|
--0---0-0-0-1-1-1-4-4-4-0-0-0---------------0-6-0-5-0-3-0-1-0-0-|


                                               
----------------------------------------------|
----------------------------------------------|
--------7--7---7---7--7-------8--8---8---8--8-|
--0-0-0------0---0------0-0-0------0---0------|


                                               
----------------------------------------------|
----------------------------------------------|
--------5--5---5---5--5-------8--8-------7--7-|
--0-0-0------0---0------0-0-0------0-0-0------|


                                               
----------------------------------------------|
----------------------------------------------|
--------7--7---7---7--7-------8--8---8---8--8-|
--0-0-0------0---0------0-0-0------0---0------|


                                               
----------------------------------------------|
----------------------------------------------|
--------5--5---5---5--5-------8--8-------7--7-|
--0-0-0------0---0------0-0-0------0-0-0------|


                                                   
--------------------------------------------------|
--------------------------------------------------|
--------7-------7---7---7-------8---8---8---8---8-|
--0-0-0---0-0-0---0---0---0-0-0---0---0---0---0---|


                                                
-----------------------------------------------|
-----------------------------------------------|
--------5-------5---5----------8--8-------7--7-|
--0-0-0---0-0-0---0----0-0-0-0------0-0-0------|


                                                   
--------------------------------------------------|
--------------------------------------------------|
--------7-------7---7---7-------8---8---8---8---8-|
--0-0-0---0-0-0---0---0---0-0-0---0---0---0---0---|


                                                
-----------------------------------------------|
-----------------------------------------------|
--------5-------5---5----------8--8-------7--7-|
--0-0-0---0-0-0---0----0-0-0-0------0-0-0------|


                                                                              
--------------------------------------|--------------------------------------|
--------------------------------2-----|--------------------------------2-----|
----------------------------0-2---2---|----------------------------0-2---2---|
--2------3------6--5--3-2-0---------3-|--2------3------6--5--3-2-0---------3-|


                                             
--------------------------------------------|
--------------------------------------2-----|
----------------------------------0-2---2---|
--2--2--2-2-3-3--3--3-6--5--3-2-0---------3-|


                                             
--------------------------------------------|
--------------------------------------2-----|
----------------------------------0-2---2---|
--2--2--2-2-3-3--3--3-6--5--3-2-0---------3-|


                                             
--------------------------------------------|
--------------------------------------2-----|
----------------------------------0-2---2---|
--2--2--2-2-3-3--3--3-6--5--3-2-0---------3-|


                                             
--------------------------------------------|
--------------------------------------2-----|
----------------------------------0-2---2---|
--2--2--2-2-3-3--3--3-6--5--3-2-0---------3-|


                                                   
--------------------------------------------------|
--------------------------------------------------|
--------7-------7---7---7-------8---8---8---8---8-|
--0-0-0---0-0-0---0---0---0-0-0---0---0---0---0---|


                                                
-----------------------------------------------|
-----------------------------------------------|
--------5-------5---5----------8--8-------7--7-|
--0-0-0---0-0-0---0----0-0-0-0------0-0-0------|


                                                   
--------------------------------------------------|
--------------------------------------------------|
--------7-------7---7---7-------8---8---8---8---8-|
--0-0-0---0-0-0---0---0---0-0-0---0---0---0---0---|


                                                
-----------------------------------------------|
-----------------------------------------------|
--------5-------5---5----------8--8-------7--7-|
--0-0-0---0-0-0---0----0-0-0-0------0-0-0------|


                                                   
--------------------------------------------------|
--------------------------------------------------|
--------7-------7---7---7-------8---8---8---8---8-|
--0-0-0---0-0-0---0---0---0-0-0---0---0---0---0---|


                                                
-----------------------------------------------|
-----------------------------------------------|
--------5-------5---5----------8--8-------7--7-|
--0-0-0---0-0-0---0----0-0-0-0------0-0-0------|


                                                   
--------------------------------------------------|
--------------------------------------------------|
--------7-------7---7---7-------8---8---8---8---8-|
--0-0-0---0-0-0---0---0---0-0-0---0---0---0---0---|


                                                                          
-----------------------------------------------------|-------------------|
-----------------------------------------------------|-------------------|
--------5---5---5---5-------5---5-----1--------------|-------------------|
--0-0-0---0---0---0---0-0-0---0---0-0----------------|--0----------------|


                                                        
-------------------|-------------------|---------------|
-------------------|-------------------|---------------|
-------------------|-------------------|---------------|
--0----------------|--0----------------|--0------------|


                                                
-----------------------------------------------|
-----------------------------------------------|
--------------5--7-5~--------------7-8-7-7-7-7-|
--4-4-4-4-4-4----------4-4-4-4-4-4-------------|


                                                
-----------------------------------------------|
-----------------------------------------------|
--------------5--7-5~--------------7-8-7-7-7-7-|
--4-4-4-4-4-4----------4-4-4-4-4-4-------------|


                                                
-----------------------------------------------|
-----------------------------------------------|
--------------5--7-5~--------------7-8-7-7-7-7-|
--4-4-4-4-4-4----------4-4-4-4-4-4-------------|


                                                
-----------------------------------------------|
-----------------------------------------------|
--------------5--7-5~--------------7-8-7-7-7-7-|
--4-4-4-4-4-4----------4-4-4-4-4-4-------------|


                                                
-----------------------------------------------|
-----------------------------------------------|
--------------5--7-5~--------------7-8-7-7-7-7-|
--4-4-4-4-4-4----------4-4-4-4-4-4-------------|


                                                
-----------------------------------------------|
-----------------------------------------------|
--------------5--7-5~--------------7-8-7-7-7-7-|
--4-4-4-4-4-4----------4-4-4-4-4-4-------------|


                                                  
-------------------------------------------------|
-------------------------------------------------|
--7-7-7-7-5-5-5-2-2-2----------------------------|
----------------------0-0-3--3-3-3-3-3-3-3-3-3-3-|


                                               
----------------------------------------------|
----------------------------------------------|
--7-7-7-7-----9-10-9--7--6--6---0-2-2-2-2-2-2-|
----------0-0---------------------------------|


                                                  
-------------------------------------------------|
-------------------------------------------------|
--7-7-7-7-5-5-5-2-2-2----------------------------|
----------------------0-0-3--3-3-3-3-3-3-3-3-3-3-|


                                               
----------------------------------------------|
----------------------------------------------|
--7-7-7-7-----9-10-9--7--6--6---0-2-2-2-2-2-2-|
----------0-0---------------------------------|


                                           
------------------------------------------|
------------------------------------------|
--5-5--5----5-5--5--5-4-4--4----4-4--4--4-|
----------0-------------------0-----------|


                                           
------------------------------------------|
------------------------------------------|
--7-7--7----7-7--7--7-2-2--2----2-2--2--2-|
----------0-------------------0-----------|


                                           
------------------------------------------|
------------------------------------------|
--5-5--5----5-5--5--5-4-4--4----4-4--4--4-|
----------0-------------------0-----------|


                                           
------------------------------------------|
------------------------------------------|
--7-7--7----7-7--7--7-2-2--2----2-2--2--2-|
----------0-------------------0-----------|


                                                  
-------------------------------------------------|
-------------------------------------------------|
--7-7-7-7-5-5-5-2-2-2----------------------------|
----------------------0-0-3--3-3-3-3-3-3-3-3-3-3-|


                                               
----------------------------------------------|
----------------------------------------------|
--7-7-7-7-----9-10-9--7--6--6---0-2-2-2-2-2-2-|
----------0-0---------------------------------|


                                                  
-------------------------------------------------|
-------------------------------------------------|
--7-7-7-7-5-5-5-2-2-2----------------------------|
----------------------0-0-3--3-3-3-3-3-3-3-3-3-3-|


                                               
----------------------------------------------|
----------------------------------------------|
--7-7-7-7-----9-10-9--7--6--6---0-2-2-2-2-2-2-|
----------0-0---------------------------------|


                                           
------------------------------------------|
------------------------------------------|
--5-5--5----5-5--5--5-4-4--4----4-4--4--4-|
----------0-------------------0-----------|


                                           
------------------------------------------|
------------------------------------------|
--7-7--7----7-7--7--7-2-2--2----2-2--2--2-|
----------0-------------------0-----------|


                                           
------------------------------------------|
------------------------------------------|
--5-5--5----5-5--5--5-4-4--4----4-4--4--4-|
----------0-------------------0-----------|


                                                                          
------------------------------------------|---------------|--------------|
------------------------------------------|---------------|--------------|
--7-7--7----7-7--7--7-2-2--2----2-2--2--2-|---------------|--------------|
----------0-------------------0-----------|--0------------|--------------|


                                                         7x
--------------|--------------||--------------------------||
--------------|--------------||*------------------------*||
--------------|--------------||*-----------5-7--7-------*||
--------------|--------------||---0--0-5-7--------0-3-5--||


                             3x                          7x
-----------------------------||--------------------------||
*---------------------------*||*------------------------*||
*------------8-10--10-------*||*-----------5-7--7-------*||
---3--3-8-10----------3-6-8--||---0--0-5-7--------0-3-5--||


                             3x                                       
-----------------------------||--------------------------------------|
*---------------------------*||--------------------------------2-----|
*------------8-10--10-------*||----------------------------0-2---2---|
---3--3-8-10----------3-6-8--||--2------3------6--5--3-2-0---------3-|


                                             
--------------------------------------------|
--------------------------------------2-----|
----------------------------------0-2---2---|
--2--2--2-2-3-3--3--3-6--5--3-2-0---------3-|


                                             
--------------------------------------------|
--------------------------------------2-----|
----------------------------------0-2---2---|
--2--2--2-2-3-3--3--3-6--5--3-2-0---------3-|


                                             
--------------------------------------------|
--------------------------------------2-----|
----------------------------------0-2---2---|
--2--2--2-2-3-3--3--3-6--5--3-2-0---------3-|


                                                         
--------------------------------------------------------|
--------------------------------------------------------|
--7-7-7-7-7-7-10-10-10-10-10-10-4-4-4-4-4-4-3-3-3-3-3-3-|
--------------------------------------------------------|


                                                   
--------------------------------------------------|
--------------------------------------------------|
--------------------------------------------------|
--5-5-5-5-5-5-1-1-1-1-1-1-7-7-7-7-7-7-7-7-7-7-7-7-|


                                                         
--------------------------------------------------------|
--------------------------------------------------------|
--7-7-7-7-7-7-10-10-10-10-10-10-4-4-4-4-4-4-3-3-3-3-3-3-|
--------------------------------------------------------|


                                                   
--------------------------------------------------|
--------------------------------------------------|
--------------------------------------------------|
--5-5-5-5-5-5-1-1-1-1-1-1-7-7-7-7-7-7-7-7-7-7-7-7-|


                                                         
--------------------------------------------------------|
--------------------------------------------------------|
--7-7-7-7-7-7-10-10-10-10-10-10-4-4-4-4-4-4-3-3-3-3-3-3-|
--------------------------------------------------------|


                                                   
--------------------------------------------------|
--------------------------------------------------|
--------------------------------------------------|
--5-5-5-5-5-5-1-1-1-1-1-1-7-7-7-7-7-7-7-7-7-7-7-7-|


                                                         
--------------------------------------------------------|
--------------------------------------------------------|
--7-7-7-7-7-7-10-10-10-10-10-10-4-4-4-4-4-4-3-3-3-3-3-3-|
--------------------------------------------------------|


                                                   
--------------------------------------------------|
--------------------------------------------------|
--------------------------------------------------|
--5-5-5-5-5-5-1-1-1-1-1-1-7-7-7-7-7-7-7-7-7-7-7-7-|


                                                         
--------------------------------------------------------|
--------------------------------------------------------|
--7-7-7-7-7-7-10-10-10-10-10-10-4-4-4-4-4-4-3-3-3-3-3-3-|
--------------------------------------------------------|


                                                   
--------------------------------------------------|
--------------------------------------------------|
--------------------------------------------------|
--5-5-5-5-5-5-1-1-1-1-1-1-7-7-7-7-7-7-7-7-7-7-7-7-|


                                                         
--------------------------------------------------------|
--------------------------------------------------------|
--7-7-7-7-7-7-10-10-10-10-10-10-4-4-4-4-4-4-3-3-3-3-3-3-|
--------------------------------------------------------|


                                                   
--------------------------------------------------|
--------------------------------------------------|
--------------------------------------------------|
--5-5-5-5-5-5-1-1-1-1-1-1-7-7-7-7-7-7-7-7-7-7-7-7-|


                                               
----------------------------------------------|
----------------------------------------------|
-----------------------------------5--5-5-5-5-|
--5--5-5-5-5-4--4-4-4-4-2--2-2-2-2------------|


                                             
--------------------------------------------|
-----------------------------------7-----7--|
--------------------------------------0-----|
--5--5-5-5-0-4--4-4-4-0-5--5-5-5-0----------|


                                               
----------------------------------------------|
----------------------------------------------|
-----------------------------------5--5-5-5-5-|
--5--5-5-5-5-4--4-4-4-4-2--2-2-2-2------------|


                                             
--------------------------------------------|
-----------------------------------7-----7--|
--------------------------------------0-----|
--5--5-5-5-0-4--4-4-4-0-5--5-5-5-0----------|


                                               
----------------------------------------------|
----------------------------------------------|
-----------------------------------5--5-5-5-5-|
--5--5-5-5-5-4--4-4-4-4-2--2-2-2-2------------|


                                             
--------------------------------------------|
-----------------------------------7-----7--|
--------------------------------------0-----|
--5--5-5-5-0-4--4-4-4-0-5--5-5-5-0----------|


                                               
----------------------------------------------|
----------------------------------------------|
-----------------------------------5--5-5-5-5-|
--5--5-5-5-5-4--4-4-4-4-2--2-2-2-2------------|


                                             
--------------------------------------------|
-----------------------------------7-----7--|
--------------------------------------0-----|
--5--5-5-5-0-4--4-4-4-0-5--5-5-5-0----------|


                                               
----------------------------------------------|
----------------------------------------------|
-----------------------------------5--5-5-5-5-|
--5--5-5-5-5-4--4-4-4-4-2--2-2-2-2------------|


                                             
--------------------------------------------|
-----------------------------------7-----7--|
--------------------------------------0-----|
--5--5-5-5-0-4--4-4-4-0-5--5-5-5-0----------|


                                               
----------------------------------------------|
----------------------------------------------|
-----------------------------------5--5-5-5-5-|
--5--5-5-5-5-4--4-4-4-4-2--2-2-2-2------------|


                                             
--------------------------------------------|
-----------------------------------7-----7--|
--------------------------------------0-----|
--5--5-5-5-0-4--4-4-4-0-5--5-5-5-0----------|


                                               
----------------------------------------------|
----------------------------------------------|
-----------------------------------5--5-5-5-5-|
--5--5-5-5-5-4--4-4-4-4-2--2-2-2-2------------|


                                             
--------------------------------------------|
-----------------------------------7-----7--|
--------------------------------------0-----|
--5--5-5-5-0-4--4-4-4-0-5--5-5-5-0----------|


                                               
----------------------------------------------|
----------------------------------------------|
-----------------------------------5--5-5-5-5-|
--5--5-5-5-5-4--4-4-4-4-2--2-2-2-2------------|


                                             
--------------------------------------------|
-----------------------------------7-----7--|
--------------------------------------0-----|
--5--5-5-5-0-4--4-4-4-0-5--5-5-5-0----------|


                                               
----------------------------------------------|
----------------------------------------------|
-----------------------------------5--5-5-5-5-|
--5--5-5-5-5-4--4-4-4-4-2--2-2-2-2------------|


                                             
--------------------------------------------|
-----------------------------------7-----7--|
--------------------------------------0-----|
--5--5-5-5-0-4--4-4-4-0-5--5-5-5-0----------|


                                               
----------------------------------------------|
----------------------------------------------|
-----------------------------------5--5-5-5-5-|
--5--5-5-5-5-4--4-4-4-4-2--2-2-2-2------------|


                                             
--------------------------------------------|
-----------------------------------7-----7--|
--------------------------------------0-----|
--5--5-5-5-0-4--4-4-4-0-5--5-5-5-0----------|


                                               
----------------------------------------------|
----------------------------------------------|
-----------------------------------5--5-5-5-5-|
--5--5-5-5-5-4--4-4-4-4-2--2-2-2-2------------|


                                             
--------------------------------------------|
-----------------------------------7-----7--|
--------------------------------------0-----|
--5--5-5-5-0-4--4-4-4-0-5--5-5-5-0----------|


                                               
----------------------------------------------|
----------------------------------------------|
-----------------------------------5--5-5-5-5-|
--5--5-5-5-5-4--4-4-4-4-2--2-2-2-2------------|


                                                                        
--------------------------------------------|--------------------------|
-----------------------------------7-----7--|--------------------------|
--------------------------------------0-----|--------------------------|
--5--5-5-5-0-4--4-4-4-0-5--5-5-5-0----------|--------------------------|


            
----------||
----------||
----------||
----------||


Enjoy





Comments


Popular Opeth tabs & chords
Epilogue Bass Tabs
Face Of Melinda Bass Tabs
In My Time Of Need Bass Tabs
Demon Of The Fall 2 Tabs
Ghost Of Perdition Tabs
Hope Leaves Live Tabs
In The Mist She Was Standing Tabs
Leper Affinity 1 Tabs
Patterns In The Ivy Ii Tabs
Windowpane Tabs


Song lyrics



↑ Back to top | Tablatures and chords are parodies/interpretations of the original songs. You may use it for private study, scholarship, research or language learning purposes only
© 2014 AZChords.com Contact us | Privacy policy | DMCA | Add/correct tabs | Request tabs | Top 50 tabs