» » »

Credence Bass tabs (ver.1)

Artists:  A B C D E F G H I J K L M N O P Q R S T U V W X Y Z # 

Credence Bass tabs (ver.1)

Opeth
Rating:
0/5 (0 votes)

Hard to play? Try these video lessons and learn fast.
                                              CREDENCE
                        As recorded by Opeth
               (From the 1998 Album My Arms, Your Hearse)



Mikael Akerfeldt (E A D G) - 'Mikael Akerfeldt, Clean Bass'


0:26

|--------------------------------------------------|
|--------------------------------------------------|
|---------0h6----6----6h7---------7--7--7--7-------|
|-5---5--------------------------------------12/---| x3

|--------------------------------------------------|
|--------------------------------------------------|
|---------0h6----6----6h7---------7--7--7--7-------|
|-5---5--------------------------------------------| x1


1:25

|------------------------------------|
|---------------------------5-5/7----|
|-5---3---------5-5h7-5--------------|
|---5-----5-4-0---------5------------|


1:36

|-----------------------------------|
|-----------------------------------|
|------------5/7---2----/3----------|
|-5---3-5--------0----0----0-1-/8-7-| x3

|----------------------------------------|
|---------/7-5---------------------------|
|--------------5h6--7---2----/3----------|
|-5---3-5-------------0----0----0-1-/8-7-| x1

|----------------------------|
|----------------------------|
|------------5/7---2----3-2--|
|-5---3-5--------0----0------| x1


2:21

|-----------------------------------|
|---------------3/5-----------------|
|-----5/3-0----------5-0-----3/5--5-|
|-6----------------------0-1--------| x6


3:05

|-----------------------------------|
|-----------------------------------|
|------------5/7---2----/3----------|
|-5---5-5--------0----0----0-1-/8-7-| x1

|-----------------------------------|
|-----------------------------------|
|------------5/7---2----/3----------|
|-5---3-5--------0----0----0-1-/8-7-| x1

|-----------------------------------|
|-----------------------------------|
|------------5/7---2----/3----------|
|-5---5-5--------0----0----0-1------| x1

|----------------------------------------|
|---------/7-5---------------------------|
|--------------5h6--7---2----/3----------|
|-5---3-5-------------0----0----0-1-/8-7-| x1


3:34

|-----------------------------------|
|---------------3/5-----------------|
|-----5/3-0----------5-0-----3/5--5-|
|-6----------------------0-1--------| x3

|---------------------------------------|
|---------------------------------------|
|-----5/3-0---------5/3-6-----6---5-----|
|-6-------------6----------6--------0---| x1


4:06 - Lower down the volume a little

|------------------|
|------------------|
|-----7-7-/3-3-2-2-|
|-0----------------| until the end
            
Hard to play? Try these video lessons and learn fast. | Correct




comments powered by Disqus
↑ Back to top | Tablatures and chords are parodies/interpretations of the original songs. You may use it for private study, scholarship, research or language learning purposes only