>
 >
Baying Of The Hounds 2

Baying Of The Hounds 2 Guitar Tabs

Opeth - Baying Of The Hounds 2 chords, tabs, tablatures, lyrics

Guitar lessons | Add/correct | Request | Top 50 tabs Artists:  A B C D E F G H I J K L M N O P Q R S T U V W X Y Z 0-9

Baying Of The Hounds 2 Guitar Tabs – Opeth

CD, Sheet music, Poster

Do you like Baying Of The Hounds 2? Share with your friends now
Bass TabsTabsTabs v2
Opeth - The Baying of the Hounds Solo
Tuning: Open Dm (DADFAD)

This is 100% correct, I played along with the solo in Audacity slowed down by around 30% 
every note is right.

      H        H         E   E    E   E
D|-------------------------------14--15--|
A|--/15b-----------------L--15b----------|
F|---------------------------------------|
D|---------------------------------------|
A|---------------------------------------|
D|---------------------------------------|


   H         Q     H         E   E
--17b--------L----17~--------L------|
------------------------------------|
--------------------------------16--|
------------------------------------|
------------------------------------|
------------------------------------|


   E   E   E   E   E   E   E   E   E   E    E   E
---------------------------------------------------|
--15-----------------------------------------------|
------14--16------14-------------------------------|
--------------15------14--15------14--15s--17--15--|
------------------------------17-------------------|
---------------------------------------------------|


   Q      E   Q       S   S   E   E   E   E   E  E
----------------------------------------------------|
---------15-----------------------------------------|
--14b--------14br----14p-12h-14p-12--11--12--11--9--|
----------------------------------------------------|
----------------------------------------------------|
----------------------------------------------------|


  H         E  E  H          E  E     Q       Q    E   E  E  E  E   Q.
-----------------------------------|---------------------------------------|
--------------------------------5--|-------------------3-------------------|
------------------7~---------------|---------------------------------------|
--7~--------L--x-------------L-----|--5pbr----3----5b-----5--3-------------|
---------------x-------------------|----------------------------5~--L------|
-----------------------------------|---------------------------------------|


   H           Q     E   E   E   E   E   E
--------------------------------------------|
--------------------------------------------|
--14brb--------L----------------------------|
--------------------14--15------14----------|
----------------------------17------16--17--|
--------------------------------------------|


   E   E   E   E   E   E   E   E   E   E   E   E
--------------------------------------------------|
--------------------------------------------------|
----------14--16------16--------------------------|
--14--15----------15------14--15------14----------|
----------------------------------17------15--17--|
--------------------------------------------------|


      W                 E   E   E  E     H         E  E  H         Q
--------------------------------------|---------------------------------|
--------------------------------------|---------------8-----------------|
-----------------------------------9--|--9b--------L-----9~--------L----|
-------------------------------10-----|---------------------------------|
--14g12~----------------L--12---------|---------------------------------|
--------------------------------------|---------------------------------|


  E  E  Q     E  E  Q     E  E  E  E
---------------------------------------|
---------------------------------------|
--7--9---------------------------------|
--------7~----5--7---------------------|
--------------------7~----L--5--7--8~--|
---------------------------------------|


  Q    E    E   Q    Q     S  S  Q    E     H         Q       Q      H
-----------------------------------------|------------------------------------|
-----------------------------------------|------------------------------------|
-----------------------------------------|-----------------<>14br----L--------|
----------5g7~--L----6~----7p-6p-5----L--|------------------------------------|
--L----5---------------------------------|--8~--------L-----------------------|
-----------------------------------------|------------------------------------|


   E   E   E   E   E   E    H         Q
--14--15--14-------------------------------|
--------------15---------------------------|
------------------14------------------L----|
----------------------15s--14~-------------|
-------------------------------------------|
-------------------------------------------|


   E   E   E   E   E   E   S   S   S   S  E   E   E   E
------------------12--14--14h-15p-14p-12-----12----------|
--------------12-------------------------12------12------|
------12--14-----------------------------------------14--|
--12-----------------------------------------------------|
---------------------------------------------------------|
---------------------------------------------------------|


   E   E   E   E    S  S  E   E   E   E      Q    E
-----------------------------------------------------|
--12-------------------------------------------------|
------14--12--14b--12--------12----------------------|
----------------------12-10------12--10--------------|
-----------------------------------------12g10----8--|
-----------------------------------------------------|


    Q     E   E  E  H         Q    E     W                H
--------------------------------------|----------------------------||
--------------------------------------|----------------------------||
--------------------------------------|----------------------------||
--5g7----10---------------------------|----------------------------||
-------------10--8--7~--------L----L--|--L----------------L--------||
--------------------------------------|----------------------------||


Duration Legend
---------------
W - whole
H - half
Q - quarter
E - 8th
S - 16th
T - 32nd
X - 64th
. - note dotted
|-n-|  - n-tuplets


Tablature Legend
----------------
L - tied note
x - dead note
g - grace note
(n) - ghost note
> - accentuded note
NH - natural harmonic
AH - artificial harmonic
TH - tapped harmonic
SH - semi harmonic
PH - pitch harmonic
h - hammer on
p - pull off
b - bend
br - bendRelease
pb - preBend
pbr - preBendRelease
brb - bendReleaseBend
\n/ - tremolo bar dip
\n - tremolo bar dive
-/n - tremolo bar Release up
/n\ - tremolo bar inverted dip
/n - tremolo bar return
-\n - tremolo bar Release down
S - shift slide
s - legato slide
/ -  slide into from below or out of upwards
\ -  slide into from above or out of downwards
~ - vibrato
W - wide vibrato
tr - trill
TP - tremolo picking
T - tapping
S - slap
P - pop
< - fade in
^ - brush up
v - brush down





Comments


Popular Opeth tabs & chords
Harvest Bass Tabs
The Lotus Eater Bass Tabs
To Rid The Disease 3 Bass Tabs
White Cluster Bass Tabs
Blackwater Park 1 Tabs
Cody You Birthday Song Tabs
Demon Of The Fall 1 Tabs
Godheads Lament Tabs
In My Time Of Need 2 Tabs
Porcelain Heart Intro Tabs


Song lyrics



↑ Back to top | Tablatures and chords are parodies/interpretations of the original songs. You may use it for private study, scholarship, research or language learning purposes only
© 2014 AZChords.com Contact us | Privacy policy | DMCA | Add/correct tabs | Request tabs | Top 50 tabs