» » »

O.K. Go, Invincible Tabs (ver.2)

Artists:  A B C D E F G H I J K L M N O P Q R S T U V W X Y Z # 

Invincible Tabs (ver.2)

O.K. Go Tabs
 Rating:
4/5 (4 votes)
Invincible lessons Tabs too difficult? Try these video lessons and learn fast
                (Intro)
OK GO - INVINCIBLE

i dont know how much if this is right but it sounds pretty good to me.

(intro & chorus)
e|----------------------------------|
B|----------------------------------|
G|-------------------------7--------|
D|--2-2---5b--2--27-7----7-7-5-5----|
A|--2-2----------27-7----7-9-5-5----|
E|--0-0----------05-5----9---3-3----|  x3

e|----------------------------------|
B|--11--11--11--11--11--11--11-11---|
G|----9---9---9---9---9---9---9-----|
D|----------------------------------|
A|----------------------------------|
E|----------------------------------|

(bass for a bit...)

e|----------------------------------|
B|--/12-12------/11-11------/12-12--|
G|--/12-12------/9--9-------/12-12--|
D|----------------------------------|
A|----------------------------------|
E|----------------------------------| 

e|--------------------------------------------------|
B|--/12-12------/11-11------/12-12-12-12---11-11-11-|
G|--/12-12------/9--9-------/12-12-12-12---9--9--9--|
D|--------------------------------------------------|
A|--------------------------------------------------|
E|--------------------------------------------------|  

e|----------------------------------|
B|--11--11--11--11--11--11--11-11---|
G|----9---9---9---9---9---9---9-----|
D|----------------------------------|
A|----------------------------------|
E|----------------------------------|
( ^ kinda boring.. i know. i think it sounds better with a band)


And then the intro/chorus goes here and then some other bit that i cant figure out. 
i dont think its how they play it but its cool :)
            
Submit corrections

comments powered by Disqus
↑ Back to top | O.K. Go Tabs for Invincible. Lyrics for acoustic guitar and electric guitar. Tablatures and chords are parodies/interpretations of the original songs. You may use it for private study, scholarship, research or language learning purposes only