» » »

O.K. Go, Invincible Tabs (ver.3)

Artists:  A B C D E F G H I J K L M N O P Q R S T U V W X Y Z # 

Invincible Tabs (ver.3)

O.K. Go Tabs
 Rating:
4/5 (4 votes)
Invincible lessons Tabs too difficult? Try these video lessons and learn fast
1
                -------------------------------------------------------------------------------
                             SONG NAME - Band Name
-------------------------------------------------------------------------------

Didn't feel like doing homework, so here is some OK GO instead.

Tuning: Standard

Intro 
e|-0-0-3---5----8---10--0----------------------------------------------------|
B|-9-9-3---5----8---10--9-----11--11--11--11---------------------------------|
G|-9-9-4---6----9---11--9-------9---9---9---9--------------------------------|
D|-9-9-5---7----10--12--9----------------------------------------------------|
A|-----5---7----10--12-------------------------------------------------------|
E|-0-0/3-1/5--3/8-8/10--0----------------------------------------------------|

Lead Verse
  PM PM  PM PM  PM
e|---------------------------------------------------------------------------|
B|---------------------------------------------------------------------------|
G|---------------------------------------------------------------------------|
D|-2--5--7--10--12-----------------------------------------------------------|
A|-2--5--7--10--12-----------------------------------------------------------|
E|-0--3--5--8---10-----------------------------------------------------------|
Rhythm Verse same as lead but occasionally does this; repeats this 
e|-/12----------12-12-/12------|----x----------------------------------------|
B|-/12----------11----/12------|----x----------------------------------------|
G|-/9----9---/9-9-----/9----9--|----9----------------------------------------|
D|-----------------------------|----x----------------------------------------|
A|-----------------------------|----x----------------------------------------|
E|-----------------------------|----x----------------------------------------|

Chorus Lead
e|-0-0-3---5----8---10--0----------------------------------------------------|
B|-9-9-3---5----8---10--9-----11--11--11--11---------------------------------|
G|-9-9-4---6----9---11--9-------9---9---9---9--------------------------------|
D|-9-9-5---7----10--12--9----------------------------------------------------|
A|-----5---7----10--12-------------------------------------------------------|
E|-0-0/3-1/5--3/8-8/10--0----------------------------------------------------|

Chorus Rhythm same as lead but instead of those two notes he plays:
e|---3----5----8--7----------------------------------------------------------|
B|---3----5----8--7----------------------------------------------------------|
G|---4----6----9--8----------------------------------------------------------|
D|---5----7----10-9----------------------------------------------------------|
A|---5----7----10-9----------------------------------------------------------|
E|---3----5----8--7----------------------------------------------------------|

TINY SOLO after the break
e|---------------------------------------------------------------------------|
B|----/9b-----/12b-----------------------------------------------------------|
G|----/9b-----/12b-----------------------------------------------------------|
D|----/9--9---/12--12--------------------------------------------------------|
A|---------------------------------------------------------------------------|
E|---------------------------------------------------------------------------|


| /  slide up
| \  slide down
| h  hammer-on
| p  pull-off
| ~  vibrato
| +  harmonic
| x  Mute note
===============================================================================
            
Submit corrections

comments powered by Disqus
↑ Back to top | O.K. Go Tabs for Invincible. Lyrics for acoustic guitar and electric guitar. 1 Tablatures and chords are parodies/interpretations of the original songs. You may use it for private study, scholarship, research or language learning purposes only