» » »

O.K. Go, Invincible Bass tabs (ver.1)

Artists:  A B C D E F G H I J K L M N O P Q R S T U V W X Y Z # 

Invincible Bass tabs (ver.1)

O.K. Go Tabs
 Rating:
4/5 (4 votes)
Invincible lessons Tabs too difficult? Try these video lessons and learn fast
1
                Tuned to dropped C (one full step down, then drop the lowest string down to C)
Played with a pick

Intro
F|-----------------------------------------------------|
C|-----------------------------------------------------|
G|-------------------4-4-7-7-9-9\\-------------4-4-----|
C|-4-4\\-7-7\\-9-9\\---------------7-7\\-9-9\\-----7-7-|

F|---------------------------------------------------------------|
C|---------------------------------------------------12-12-12-12-|
G|-------------------4-4-7-7-5-5-5-5-5-5-5-5-5-5-5-5-------------|
C|-4-4\\-7-7\\-9-9\\---------------------------------------------|

Verse
F|-----------------------------------------------------|
C|-----------------------------------------------------|
G|-------------------4-4-7-7-9-9\\-------------4-4-----|
C|-4-4\\-7-7\\-9-9\\---------------7-7\\-9-9\\-----7-7-|x2

F|-------------------------------------|
C|-------------------------12-12-12-12-|
G|-5-5-5-5-5-5-5-5-5-5-5-5/------------|
C|-------------------------------------|

Chorus
F|-----------------------------------------------------|
C|-----------------------------------------------------|
G|-------------------4-4-7-7-9-9\\-------------4-4-----|
C|-4-4\\-7-7\\-9-9\\---------------7-7\\-9-9\\-----7-7-|

                                                             * * * *
F|-------------------------------------------------------------------|
C|-------------------------------------------------------------------|
G|-------------------4-4-7-7-----------------7-7-7-7-7-7-7-7-9-9-8-8-|
C|-4-4\\-7-7\\-9-9\\---------7-7-7-7-7-7-7-7-------------------------|

Chorus end
F|-------------------------------------------|
C|-------------------------------------------|
G|-------------------4-4-----5-5-5-5-5-5-5-5-|
C|-4-4\\-7-7\\-9-9\\-----7-7-----------------|

Verse

Chorus

Bridge			  *	   *	      *	       *
F|-----------------------------------------------------------|
C|-----------------------------------------------------------|
G|-------------------7---14---7---14--7--5---12---5---12---5-|
C|-4~~~~~~~~~~~~~~~-7----------------------------------------|

F|---------------7-7-7-7-----------------------------------------------|
C|--------7-7-7-7-------7-7-7-7----------------12-12-12-12-12-12-12-12-|
G|-7-7-7-7----------------------5-5-5-5-5-5-5-5------------------------|
C|---------------------------------------------------------------------|

   * *	   * *
F|-----------------|
C|-----------------|
G|-----------------|
C|-4-4-----7-7-----|

Outro
F|-----------------------------------------------------|
C|-----------------------------------------------------|
G|-------------------4-4-7-7-9-9\\-------------4-4-----|
C|-4-4\\-7-7\\-9-9\\---------------7-7\\-9-9\\-----7-7-| x3

                                                             * * * *
F|-------------------------------------------------------------------|
C|-------------------------------------------------------------------|
G|-------------------4-4-7-7-----------------7-7-7-7-7-7-7-7-9-9-8-8-|
C|-4-4\\-7-7\\-9-9\\---------7-7-7-7-7-7-7-7-------------------------|

\\ - slide all the way down
* - staccato note
~ - sustained note
            
Submit corrections

comments powered by Disqus
↑ Back to top | O.K. Go Bass for Invincible. Lyrics for acoustic guitar and electric guitar. 1 Tablatures and chords are parodies/interpretations of the original songs. You may use it for private study, scholarship, research or language learning purposes only