» » »

O.K. Go, Invincible Bass tabs (ver.2)

Artists:  A B C D E F G H I J K L M N O P Q R S T U V W X Y Z # 

Invincible Bass tabs (ver.2)

O.K. Go Tabs
 Rating:
4/5 (4 votes)
Invincible lessons Tabs too difficult? Try these video lessons and learn fast
1
                I saw the other bass tab and decided to do it in standard tuning
So this is the same as the other tab, just transposed
so cudos to the guy who figured it out


Intro
G|-----------------------------------------------------|
D|-----------------------------------------------------|
A|------------------2-2-5-5-7-7\\-------------2-2------|
E|-0-0\\-3-3\\-5-5\\--------------3-3\\-5-5\\------3-3-|

G|--------------------------------------------------------------|
D|--------------------------------------------------10-10-10-10-|
A|------------------2-2-5-5-3-3-3-3-3-3-3-3-3-3-3-3-------------|
E|-0-0\\-3-3\\-5-5\\--------------------------------------------|

Verse
G|-----------------------------------------------------|
D|-----------------------------------------------------|
A|------------------2-2-5-5-7-7\\-------------2-2------|
E|-0-0\\-3-3\\-5-5\\--------------3-3\\-5-5\\------3-3-|x2

G|--------------------------------------|
D|--------------------------10-10-10-10-|
A|-3-3-3-3-3-3-3-3-3-3-3-3/-------------|
E|--------------------------------------|

Chorus
G|-----------------------------------------------------|
D|-----------------------------------------------------|
A|------------------2-2-5-5-7-7\\-------------2-2------|
E|-0-0\\-3-3\\-5-5\\--------------3-3\\-5-5\\------3-3-|

                                                            * * * *
G|------------------------------------------------------------------|
D|------------------------------------------------------------------|
A|------------------2-2-5-5-----------------5-5-5-5-5-5-5-5-7-7-6-6-|
E|-0-0\\-3-3\\-5-5\\--------3-3-3-3-3-3-3-3-------------------------|

Chorus End
G|------------------------------------------|
D|------------------------------------------|
A|------------------2-2-----3-3-3-3-3-3-3-3-|
E|-0-0\\-3-3\\-5-5\\----3-3-----------------|

Verse

Chorus

Bridge                         *        *            *           *
G|-----------------------------------------------------------|
D|-----------------------------------------------------------|
A|-------------------5---12---5---12--5--3---10---3---10---3-|
E|-0~~~~~~~~~~~~~~~3-----------------------------------------|

G|----------------5-5-5-5------------------------------------------------|
D|--------5-5-5-5--------5-5-5-5-----------------10-10-10-10-10-10-10-10-|
A|-5-5-5-5-----------------------3-3-3-3-3-3-3-3-------------------------|
E|-----------------------------------------------------------------------|

   * *     * *
G|-----------------------------------------------------|
D|-----------------------------------------------------|
A|-----------------------------------------------------|
E|-0-0-----3-3-----------------------------------------|

G|-----------------------------------------------------|
D|-----------------------------------------------------|
A|------------------2-2-5-5-7-7\\-------------2-2------|
E|-0-0\\-3-3\\-5-5\\--------------3-3\\-5-5\\------3-3-|x3

Outro                                                       * * * *
G|------------------------------------------------------------------|
D|------------------------------------------------------------------|
A|------------------2-2-5-5-----------------5-5-5-5-5-5-5-5-7-7-6-6-|
E|-0-0\\-3-3\\-5-5\\--------3-3-3-3-3-3-3-3-------------------------|

\\ - slide all the way down
* - staccato note
~ - sustained note
            
Submit corrections

comments powered by Disqus
↑ Back to top | O.K. Go Bass for Invincible. Lyrics for acoustic guitar and electric guitar. 1 Tablatures and chords are parodies/interpretations of the original songs. You may use it for private study, scholarship, research or language learning purposes only