» » »

O.K. Go, Invincible Tabs (ver.1)

Artists:  A B C D E F G H I J K L M N O P Q R S T U V W X Y Z # 

Invincible Tabs (ver.1)

O.K. Go Tabs
Rating:
0/5 (0 votes)
Invincible lessons Tabs too difficult? Try these video lessons and learn fast
                -------------------------------------------------------------------------------
			     Invincible – OK Go
-------------------------------------------------------------------------------

Tuning: Standard EADGBe

Intro/Chorus 
	Guitar 1
e|-------3--------------5--------------|
B|-------6b8------------8b10-----------|
G|-------------------------------7-----|
D|--2-2------5-5---7-7--------9--7-----|
A|--2-2------5-5---7-7--------9--5-----|    x3 
E|--0-0------3-3---5-5--------7--------|
	Guitar 2
e|-------------------------------------|
B|-------------------------------------|
G|-------------------------------7-----|
D|--2-2------5-5---7-7--------9--7-----|
A|--2-2------5-5---7-7--------9--5-----|    x3 
E|--0-0------3-3---5-5--------7--------|

Fill 1
	Guitar 1
e|-------------------------------------|
B|---11-11-11-11-11-11-11-11-----------|
G|-----9--9--9--9--9--9--9--9—---------|
D|-------------------------------------|
A|-------------------------------------|
E|-------------------------------------|
	Guitar 2
e|-------------------------------------|
B|-------------------------------------|
G|---5-5-5-5-5-5-5-5-5-5-5-5-5-5-5-5---|
D|---5-5-5-5-5-5-5-5-5-5-5-5-5-5-5-5---|
A|---3-3-3-3-3-3-3-3-3-3-3-3-3-3-3-3---|
E|---3-3-3-3-3-3-3-3-3-3-3-3-3-3-3-3---|

Verse 1
	Guitar 1 only
e|---------------------------------------------|
B|-Bass Plays---------------/11-11----/12-12---|
G|----------------/12-12----/12-12----/12-12---|
D|---Then->-------/14-14-----------------------|
A|---------------------------------------------|
E|---------------------------------------------|

e|---------------------------------------------------------|
B|-Bass Plays---------------/11-11----/12--12---15-15-15\--|
G|---Again--------/12-12----/12-12-------12--12-15-15-15\--|
D|---Then->-------/14-14-----------------------------------|
A|---------------------------------------------------------|
E|---------------------------------------------------------|

Fill 2
	Guitar 1
e|--------------------------------|
B|--12------10-------8-8--7-7-----|
G|--x---x8--x---x8---x-x--x-x-----|
D|--9-------7--------5-5--4-4-----|
A|--------------------------------|
E|--------------------------------|
	Guitar 2
e|--------------------------------|
B|--------------------------------|
G|-------------------5-5--4-4-----|
D|--5------7---------5-5--4-4-----|
A|--5--x8--7---x8----3-3--2-2-----|
E|--3------5----------------------|

Fill 3
	Guitar 1
e|-----------------15-15\---------------------------------------|
B|-----------------15-15\-------11-11-11-11-11-11-11-11---------|
G|--9-9-9-9-9-9-------------------9--9--9--9--9--9--9--9—-------|
D|--------------------------------------------------------------|
A|--------------------------------------------------------------|
E|--------------------------------------------------------------|
	Guitar 2
e|--------------------------------------------------------------|
B|--------------------------------------------------------------|
G|------------------------------5-5-5-5-5-5-5-5-5-5-5-5-5-5-5-5-|
D|------------------------------5-5-5-5-5-5-5-5-5-5-5-5-5-5-5-5-|
A|------------------------------3-3-3-3-3-3-3-3-3-3-3-3-3-3-3-3-|
E|------------------------------3-3-3-3-3-3-3-3-3-3-3-3-3-3-3-3-|

Verse 2
	Guitar 1 only
e|----------------15-15\----------/12-12\----------------------|
B|----------------15-15\----------/12-12\---/12-12\----10b11---|
G|---9-9-9-9-9-9--------------12------------/12-12\------------|
D|------------------------/14----------------------------------|
A|-------------------------------------------------------------|
E|-------------------------------------------------------------|

e|----------------15\--------------------------------------------|
B|----------------15\-------------/11-11----/12--12---15-15-15\--|
G|---9-9-9-9-9-9--------/12-12----/12-12-------12--12-15-15-15\--|
D|----------------------/14-14-----------------------------------|
A|---------------------------------------------------------------|
E|---------------------------------------------------------------|

Bridge
	Guitars 1 and 2
e|--------------|
B|--------------|
G|--------------|
D|--------------|
A|--2----hold---|
E|--0-----------|

Fill 4
	Guitar 1
e|---------------------------------------|
B|--------8b9-----------10b12------------|
G|---------------------------------------|
D|---2-2------9---7-7----------12-12-----|
A|---2-2------x---7-7----------x--x------|
E|---0-0------7---5-5----------10-10-----|
	Guitar 2
e|---------------------------------------|
B|---------------------------------------|
G|---------------------------------------|
D|---2-2----------7-7--------------------|
A|---2-2----------7-7--------------------|
E|---0-0----------5-5--------------------|

Final Chorus Alt Guitar 1 part
	(instead of the bends just hang on this till the outro)
	Guitar 2 plays normal Chorus over and over
e|------------------------------------------|
B|------------------------------------------|
G|---9-9-9-9---9---9-9-9-9---9-----9-9-9-9--|
D|---x-------------x---------------x--------|
A|---7-------------7---------------7--------|    x8
E|------------------------------------------|

e|-------------|
B|---/12-------|
G|----x--------|
D|---/9--------|
A|-------------|    x3
E|-------------|



_Intro
_Fill 1
_Verse 1
_Fill 1
_Chorus
_Fill 2
_Fill 3
_Verse 2
_Fill 1
_Chorus
_Fill 2	
_Bridge
_Fill 1
_Fill 4
_Final Chorus
_Fill 2


| /  slide up
| \  slide down
| h  hammer-on
| p  pull-off
| ~  vibrato
| +  harmonic
| x  Mute note
===============================================================================
            

comments powered by Disqus
↑ Back to top | O.K. Go Tabs for Invincible. Lyrics for acoustic guitar and electric guitar. Tablatures and chords are parodies/interpretations of the original songs. You may use it for private study, scholarship, research or language learning purposes only