» » »

Of Mice And Men, Still Ydgn Bass tabs (ver.1)

Artists:  A B C D E F G H I J K L M N O P Q R S T U V W X Y Z # 

Still Ydgn Bass tabs (ver.1)

Of Mice And Men Tabs
 Rating:
3.6/5 (7 votes)
Still Ydgn lessons Tabs too difficult? Try these video lessons and learn fast
                f|-------------------------------------------------------------|
c|-------------------------------------------------------------|
g|-------------------------------------------------------------|x2
c|-----12/--0000-1\12-0-0000-1\12-0-0000-1\12-0-0000-1/12-111--|
      (^played only once)
f|---------------------|
c|---------------------|
g|---------------------|
c|-000-000-000-000-000-| x4 (palm mute all)

f|---------------------------------------------------------|
c|---------------------------------------------------------|
g|------------------------78---78---78---------------------|
c|-9-9999-9999-5-5555-5555--3-0--3-0--3-0-3-3-3-3-5-5-5-5--| x2

f|---------------------|--------------------------------|
c|---------------------|--------------------------------|
g|---------------------|-78---78---78-------------------|
c|9-9999-9999-5-5-5-5-5|---3-0--3-0--3-0-3-3-3-3-5-5-5-5|
                              played x3
f|--------------------------------------------|
c|--------------------------------------------|
g|78---78---78--------------------------------|
c|3-0--3-0----3-0-3~-5~---9(x8)-5(x8)-0(x16)--|

f|-----------------------------------------------|
c|-----------------------------------------------|
g|-----------------------------------------------|
c|9(x8)-5(x8)-12-0-0-0-12-0-0-0-12-0-0-0-12-0-12-|

f|---------------------------------------------------------------|
c|---------------------------------------------------------------|
g|---------------------------------------------------------------|
c|9(x8)-5(x8)-0(x16)-9(x8)-5(x8)-(then the 12-0-0-0-12-----------| thing x2)

                         (guitar break)
f|----------------------|
c|----------------------|
g|----------------------|
c|000-000-000-000-000---| x4 (palm mute all)

f|---------------------------------------------------|
c|---------------------------------------------------|
g|---------------------------------------------------|
c|0000-1\12-0-0000-1\12-0-0000-1\12-0-0000-1/12-111--| x2

f|---------------------------------------------------------|
c|---------------------------------------------------------|
g|------------------------78---78---78---------------------|
c|-9-9999-9999-5-5555-5555--3-0--3-0--3-0-3-3-3-3-5-5-5-5--| x2

f|-----------------------------------------|
c|-----------------------------------------|
g|78---78---78-----------------------------|
c|--3-0--3-0--3-0-3~-5~-9(x8)-5(x8)-0(x16--|

f|-----------------------------------------------|
c|-----------------------------------------------|
g|-----------------------------------------------|
c|9(x8)-5(x8)-12-0-0-0-12-0-0-0-12-0-0-0-12-0-12-|

f|-----------------------------------------|
c|-----------------------------------------|
g|-----------------------------------------|
c|9(x8)-5(x8)-0(x16)- 9(x8)-5(x8)-000(x20)-| (palm mute triplets at end also)
            
Submit corrections

comments powered by Disqus
↑ Back to top | Of Mice And Men Bass for Still Ydgn. Lyrics for acoustic guitar and electric guitar. Tablatures and chords are parodies/interpretations of the original songs. You may use it for private study, scholarship, research or language learning purposes only