» » »

Of Mice And Men, Still Ydgn Bass tabs (ver.2)

Artists:  A B C D E F G H I J K L M N O P Q R S T U V W X Y Z # 

Still Ydgn Bass tabs (ver.2)

Of Mice And Men Tabs
 Rating:
4/5 (4 votes)
Still Ydgn lessons Tabs too difficult? Try these video lessons and learn fast
1
                Tuning: Drop C

/\ = Slide Up or Down
h = Hammer
b = Bend


Intro/Verse 1 [0:00-0:16]
F|--------------|--------------------------------------------------|
C|--------------|--------------------------------------------------|   
G|--------------|--------------------------------------------------|
C|0000-0000-12/1|0000-1\13b-0-0000-1\13b-0-0000-1\13b-0-1111-1-1-1-|x2

Verse 2[0:20-0:34]
F|------------------------------------------|
C|------------------------------------------|   
G|------------------------------------------|
C|000-000-000-000-000---000-000-000-000-000-|x2

Pre-Chorus [0:34-1:06]
F|------------------------------------------------------------------|
C|------------------------------------------------------------------|   
G|---------------------------------7h8-3h-5-7h8-3h-5-7h8-3h-5-333555|
C|88888888888888885555555555555555----0--------0--------0-----------|x2

F|--------------------------------|
C|--------------------------------|   
G|--------------------------------|
C|88888888888888885555555555555555|

F|-------------------------------------------------|
C|-------------------------------------------------|   
G|7h8---7h8---7h8---333555-7h8---7h8---7h8---555333|
C|---0-0---0-0---0-0----------0-0---0-0---0-0------|

F|-------------------------------------------------|
C|-------------------------------------------------|   
G|7h8---7h8---7h8---333555-7h8---7h8---7h8---5--3--|
C|---0-0---0-0---0-0----------0-0---0-0---0-0------|

Chorus [1:06-1:31]
F|-------------------------------------------------------------|
C|-------------------------------------------------------------|   
G|----------------------------------------------1\5-5-5-5-5-5-5|
C|8-8-8-8-8-8-8-8-5-5-5-5-5-5-5-5-0-0-0-0-0-0-0----------------|x2

F|--------------------------------|
C|--------------------------------|   
G|--------------------------------|
C|8-8-8-8-8-8-8-8-5-5-5-5-5-5-5-5-|

Chorus 2 [1:31-1:38]
F|-------------------------------------|
C|-------------------------------------|   
G|-------------------------------------|
C|12-0-0-12-0-0-12-0-0-12-0-0-13-0-13-0|x2

Breakdown 1 [1:45-1:59]
F|------------------------------------------|
C|------------------------------------------|   
G|------------------------------------------|
C|000-000-000-000-000---000-000-000-000-000-|x2

Verse 3 [1:59-2:14]
F|--------------------------------------------------|
C|--------------------------------------------------|   
G|--------------------------------------------------|
C|0000-1\13b-0-0000-1\13b-0-0000-1\13b-0-1111-1-1-1-|x2

Pre-Chorus 2 [2:14-2:31]
F|------------------------------------------------------------------|
C|------------------------------------------------------------------|   
G|---------------------------------7h8-3h-5-7h8-3h-5-7h8-3h-5-333555|
C|88888888888888885555555555555555----0--------0--------0-----------|

F|--------------------------------|
C|--------------------------------|   
G|--------------------------------|
C|88888888888888885555555555555555|

F|-------------------------------------------------|
C|-------------------------------------------------|   
G|7h8---7h8---7h8---333555-7h8---7h8---7h8---5--3--|
C|---0-0---0-0---0-0----------0-0---0-0---0-0------|

Repeat Chorus 1 [2:31-2:56]

Outro [2:56-3:11]
F|------------------------------------------|
C|------------------------------------------|   
G|------------------------------------------|
C|000-000-000-000-000---000-000-000-000-000-|x2

END
            
Submit corrections

comments powered by Disqus
↑ Back to top | Of Mice And Men Bass for Still Ydgn. Lyrics for acoustic guitar and electric guitar. 1 Tablatures and chords are parodies/interpretations of the original songs. You may use it for private study, scholarship, research or language learning purposes only