» » »

Neon Trees, Animal Tabs (ver.5)

Artists:  A B C D E F G H I J K L M N O P Q R S T U V W X Y Z # 

Animal Tabs (ver.5)

Neon Trees Tabs
 Rating:
4/5 (5 votes)
Animal lessons Tabs too difficult? Try these video lessons and learn fast
                Neon Trees - Animal

Key: F (Nice practice for pentatonic scale)

Chords: F - C - Bb - C

Capo on 3th:
D - A - G - A

All with capo on 3th:

intro:

e|--2-2---------0-0-2-2---------0-0----------------------------------|
B|------0-0-3-3---------0-0-3-3-----3-3-3-3-2-2-2-2-0-0-0-0-0-0-0-0--|
G|-------------------------------------------------------------------|  (x2)
D|-------------------------------------------------------------------|
A|-------------------------------------------------------------------|
E|-------------------------------------------------------------------|

CHORUS:
e|--2-2---------0-0-2-2---------0-0----------------------------------|
B|------0-0-3-3---------0-0-3-3-----3-3-3-3-2-2-2-2-0-0-0-0-0-0-0-0--|
G|-------------------------------------------------------------------|
D|-------------------------------------------------------------------|
A|-------------------------------------------------------------------|
E|-------------------------------------------------------------------|

e|--2-2---------0-0-2-2---------0-0-|
B|------0-0-3-3---------0-0-3-3-----|
G|----------------------------------|  (x2)
D|----------------------------------|
A|----------------------------------|
E|----------------------------------|

second time that 3333222200000000 again.

Verse 1:
 D
Here we go again
                         A
I kinda wanna be more than friends

So take it easy on me
G                   A               G
I'm afraid you're never satisfied.
D
Here we go again

we're sick like animals
        A
we play pretend

you're just a cannibal
G                                 A
and I'm afraid I won’t get out alive
      G
no I won't sleep tonight.


CHORUS:
D
Oh, oh

I want some more
A
Oh, oh
                       G
what are you waitin' for?
                             D
Take a bite of my heart tonight.

Oh oh

I want some more
A
Oh oh
                       G
what are you waitin' for?
                       A
what are you waitin' for?
                             D
Say goodbye to my heart tonight.


VERSE 2
D
Here we are again
                             A
I feel the chemicals kickin' in

it's gettin heavier
    G
I wanna run and hide
A                    G
I wanna run and hide.
D
I do it every time
                    A
you're killin' me now
        G
and I won't be denied by you
         A
the animal inside of you.


CHORUS
D
Oh, oh

I want some more
A
Oh, oh
                       G
what are you waitin' for?
                              D
Take a bite of my heart tonight.

Oh oh

I want some more
A
Oh oh
                        G
what are you waitin' for?
                        A
what are you waitin' for?
                              G
Say goodbye to my heart tonight.

BRIDGE
G
hush hush the world is quiet
A
hush hush we both can't fight it
G
It's us that made this mess
D                        A
why can't you understand?
            G               D  A  G
Woah I won't sleep tonight.
G                         D  A  G  D
I wont sleep tonight.
D
Here we go again Here we go again Here we go again

CHORUS REPEAT
            
Submit corrections

comments powered by Disqus
↑ Back to top | Neon Trees Tabs for Animal. Lyrics for acoustic guitar and electric guitar. Tablatures and chords are parodies/interpretations of the original songs. You may use it for private study, scholarship, research or language learning purposes only