» » »

Neon Trees, Animal Bass tabs (ver.1)

Artists:  A B C D E F G H I J K L M N O P Q R S T U V W X Y Z # 

Animal Bass tabs (ver.1)

Neon Trees Tabs
 Rating:
4/5 (16 votes)
Animal lessons Tabs too difficult? Try these video lessons and learn fast
                
Intro - slide in after 8 beats
G|-------------------|-----------------|-----------------|-------------------------|
D|-------------------|-----------------|-----------------|-------------------------|
A|15S8-8-8-8-8-8-8-8-|-8-8-8-8-8-8-8-8-|-----------------|-------------------------| x2
E|-------------------|-----------------|-8-8-8-8-8-8-8-8-|-10-10-10-10-10-10-10-10-|

Verse 1
G|-----------------|-----------------|-----------------|-----------------|
D|-----------------|-----------------|-----------------|-----------------|
A|-8-8---8-8-8---8-|-8-8---8-8-8---8-|-----------------|-----------------|
E|-----------------|-----------------|-8-8---8-8-8---8-|-8-8---8-8-8---8-|

G|-----------------|-----------------|-----------------|-----------------|
D|-----------------|-----------------|-----------------|-----------8-8-8-|
A|-----------------|-----------------|-----------------|-----------------|
E|-6-6---6-6-6---6-|-6-6---6-6-6---6-|-8-8---8-8-8---8-|-8-8---8-8-------|

G|-----------------|-----------------|-----------------|-------------------|
D|-----------------|-----------------|-----------------|-------------------|
A|-8-8---8-8-8---8-|-8-8---8-8-8---8-|-----------------|-------------------|
E|-----------------|-----------------|-8-8---8-8-8---8-|-8-8---8-8-8---8-6H|

Chorus 1
G|-----------------|-----------------|-----------------|-----------------|
D|-----------------|-----------------|-----------------|-----------------|
A|-8-8-8-8-8-8-8-8-|-8-8-8-8-8-8-8-8-|-----------------|-----------------|
E|-----------------|-----------------|-8-8-8-8-8-8-8-8-|-8-8-8-8-8-8-8-8-|

G|-----------------|-----------------|-----------------|-----------------|
D|-----------------|-----------------|-----------------|-----------------|
A|-----------------|-----------------|-8-8-8-8-8-8-8-8-|-8-8-8-8-8-8-8-8-|
E|-6-6-6-6-6-6-6-6-|-6-6-6-6-6-6-6-6-|-----------------|-----------------|

G|-------------------------|-------------------------|-----------------|-----------------|
D|-------------------------|-------------------------|-----------------|-----------------|
A|-12-12-12-12-12-12-12-12-|-12-12-12-12-12-12-12-12-|-----------------|-----------------|
E|-------------------------|-------------------------|-6-6-6-6-6-6-6-6-|-6-6-6-6-6-6-6-6-|

G|-----------------|-----------------|-----------------|-----------------|
D|-----------------|-----------------|-----------------|-----------8-8-8-|
A|-----------------|-----------------|-8-8---8-8-8---8-|-8-8---8-8-------|
E|-8-8-8-8-8-8-8-8-|-8-8-8-8-8-8-8-8-|-----------------|-----------------|

Verse 2
G|-----------------|-----------------|-----------------|-----------------|
D|-----------------|-----------------|-----------------|-----------------|
A|-8-8---8-8-8---8-|-8-8---8-8-8---8-|-----------------|-----------------|
E|-----------------|-----------------|-8-8---8-8-8---8-|-8-8---8-8-8---8-|

G|-----------------|-----------------|-----------------|-----------------|
D|-----------------|-----------------|-----------------|-----------8-8-8-|
A|-----------------|-----------------|-----------------|-----------------|
E|-6-6---6-6-6---6-|-6-6---6-6-6---6-|-8-8---8-8-8---8-|-8-8---8-8-------|

G|-----------------|-----------------|-----------------|-----------------|
D|-----------------|-----------------|-----------------|-----------------|
A|-8-8---8-8-8---8-|-8-8---8-8-8---8-|-----------------|-----------------|
E|-----------------|-----------------|-8-8---8-8-8---8-|-8-8---8-8-8---8-|

G|-----------------|-----------------|-----------------|-----------------|
D|-----------------|-----------------|-----------------|-----------------|
A|-----------------|-----------------|-----------------|-----------------|
E|-6-6---6-6-6---6-|-6-6---6-6-6---6-|-8-8---8-8-8---8-|-8-8---8-8-8---8-|


Chorus 2
G|-----------------|-----------------|-----------------|-----------------|
D|-----------------|-----------------|-----------------|-----------------|
A|-8-8-8-8-8-8-8-8-|-8-8-8-8-8-8-8-8-|-----------------|-----------------|
E|-----------------|-----------------|-8-8-8-8-8-8-8-8-|-8-8-8-8-8-8-8-8-|

G|-----------------|-----------------|-----------------|-----------------|
D|-----------------|-----------------|-----------------|-----------------|
A|-----------------|-----------------|-8-8-8-8-8-8-8-8-|-8-8-8-8-8-8-8-8-|
E|-6-6-6-6-6-6-6-6-|-6-6-6-6-6-6-6-6-|-----------------|-----------------|

G|-------------------------|-------------------------|-----------------|-----------------|
D|-------------------------|-------------------------|-----------------|-----------------|
A|-12-12-12-12-12-12-12-12-|-12-12-12-12-12-12-12-12-|-----------------|-----------------|
E|-------------------------|-------------------------|-6-6-6-6-6-6-6-6-|-6-6-6-6-6-6-6-6-|

G|-----------------|-----------------|
D|-----------------|-----------------|
A|-----------------|-----------------|
E|-8-8-8-8-8-8-8-8-|-8-8-8-8-8-8-8-8-|

Bridge
G|-----------------|-----------------|-----------------|-----------------|
D|-----------------|-----------------|-----------------|-----------------|
A|-----------------|-----------------|-----------------|-----------------|x2
E|-6---------------|-----------------|-8---------------|-----------------|

G|-----------------|-----------------|
D|-----------------|-8-8-8-8-8-8-8-8-|
A|-----------------|-----------------|
E|-6---------------|-----------------|

G|-----------------|-----------------|-----------------|-------------------------|
D|-----------------|-----------------|-----------------|-------------------------|
A|-8-8-8-8-8-8-8-8-|-8-8-8-8-8-8-8-8-|-----------------|-------------------------|x2
E|-----------------|-----------------|-8-8-8-8-8-8-8-8-|-10-10-10-10-10-10-10-10-|

G|-----------------|-----------------|-----------------|-----------------|
D|-----------------|-----------------|-----------------|-----------------|
A|-8-8---8-8-8---8-|-8-8---8-8-8---8-|-8-8---8-8-8---8-|-8-8---8-8-------|
E|-----------------|-----------------|-----------------|-----------------|

Chorus 3
G|-----------------|-----------------|-----------------|-----------------|
D|-----------------|-----------------|-----------------|-----------------|
A|-8-8-8-8-8-8-8-8-|-8-8-8-8-8-8-8-8-|-----------------|-----------------|
E|-----------------|-----------------|-8-8-8-8-8-8-8-8-|-8-8-8-8-8-8-8-8-|

G|-----------------|-----------------|-----------------|-----------------|
D|-----------------|-----------------|-----------------|-----------------|
A|-----------------|-----------------|-8-8-8-8-8-8-8-8-|-8-8-8-8-8-8-8-8-|
E|-6-6-6-6-6-6-6-6-|-6-6-6-6-6-6-6-6-|-----------------|-----------------|

G|-------------------------|-------------------------|-----------------|-----------------|
D|-------------------------|-------------------------|-----------------|-----------------|
A|-12-12-12-12-12-12-12-12-|-12-12-12-12-12-12-12-12-|-----------------|-----------------|
E|-------------------------|-------------------------|-6-6-6-6-6-6-6-6-|-6-6-6-6-6-6-6-6-|

G|-----------------|-----------------|-----------------|-----------------|
D|-----------------|-----------------|-----------------|-----------------|
A|-----------------|-----------------|-8---------------|-----------------|
E|-8-8-8-8-8-8-8-8-|-8-8-8-8-8-8-8-8-|-----------------|-----------------|

End
            
Submit corrections

comments powered by Disqus
↑ Back to top | Neon Trees Bass for Animal. Lyrics for acoustic guitar and electric guitar. Tablatures and chords are parodies/interpretations of the original songs. You may use it for private study, scholarship, research or language learning purposes only