» » »

Neon Trees, Animal Tabs (ver.2)

Artists:  A B C D E F G H I J K L M N O P Q R S T U V W X Y Z # 

Animal Tabs (ver.2)

Neon Trees Tabs
Rating:
5/5 (21 vote)
Animal lessons Tabs too difficult? Try these video lessons and learn fast
                Animal by Neon Trees
Standard tuning
Fairly easy song- let me know if you have any questions/comments.


Intro:

Guitar 1

e|--5-5---------3-3-5-5---------3-3----------------------------------|
B|------3-3-6-6---------3-3-6-6-----6-6-6-6-5-5-5-5-3-3-3-3-3-3-3-3--|
G|-------------------------------------------------------------------|  (x2)
D|-------------------------------------------------------------------|
A|-------------------------------------------------------------------|
E|-------------------------------------------------------------------|

Guitar 2

e|----------------------------------------------------------------------------------|
B|----------------------------------------------------------------------------------|
G|----------------------------------------------------------------------------------|
D|--------------------------10-10-10-10---------------------------------------------|
A|--8-8-8-8-8-8-8-8-8-8-8-8---------------------------------------------------------|
E|---------------------------------------8-8-8-8-8-8-8-8-10-10-10-10-10-10-10-10----|

e|-----------------------------------------------------------------------|
B|-----------------------------------------------------------------------|
G|-----------------------------------------------------------------------|
D|--------------------------10-10-10-10----------------------------------|
A|--8-8-8-8-8-8-8-8-8-8-8-8----------------------------------------------|
E|--------------------------------------8-8-8-8-8-8-8-8-6-6-6-6-6-6-6-6--|

Verse- Guitar 2 tacet

Guitar 1 (0:29)

e|-------|
B|-------|
G|-------|
D|-8-8-8-|
A|-8-8-8-|
E|-6-6-6-|


(Synth)  (0:40)

e|---------8---------|
B|-10-8-10---10-8-10-|
G|-------------------|
D|-------------------|
A|-------------------|
E|-------------------|

Chorus (0:46)

e|--5-5---------3-3-5-5---------3-3----------------------------------|
B|------3-3-6-6---------3-3-6-6-----6-6-6-6-5-5-5-5-3-3-3-3-3-3-3-3--|
G|-------------------------------------------------------------------|
D|-------------------------------------------------------------------|
A|-------------------------------------------------------------------|
E|-------------------------------------------------------------------|

e|--5-5---------3-3-5-5---------3-3--(x2)----------------------------------|
B|------3-3-6-6---------3-3-6-6-----------6-6-6-6-5-5-5-5-3-3-3-3-3-3-3-3--|
G|-------------------------------------------------------------------------|  
D|-------------------------------------------------------------------------|
A|-------------------------------------------------------------------------|
E|-------------------------------------------------------------------------|

e|--5-5---------3-3-5-5---------3-3----------------------------------|
B|------3-3-6-6---------3-3-6-6-----6-6-6-6-5-5-5-5-3-3-3-3-3-3-3-3--|
G|-------------------------------------------------------------------|
D|-------------------------------------------------------------------|
A|-------------------------------------------------------------------|
E|-------------------------------------------------------------------|

e|-------|
B|-------|
G|-------|
D|-8-8-8-|
A|-8-8-8-|
E|-6-6-6-|

Verse 2- Guitar 1 (1:12)

e|--------------------------------------------------------------------|
B|--10-10----10-10----10-10----10-10----------------------------------|
G|--10-10----10-10----10-10----10-10----9--9----9--9----9--9----9--9--|
D|--10-10----10-10----10-10----10-10----10-10---10-10---10-10---10-10-|
A|--8--8-----8--8-----8--8-----8--8-----10-10---10-10---10-10---10-10-|
E|--------------------------------------8--8----8--8----8--8----8--8--|

e|-------------------------------------------------------------|
B|-------------------------------------------------------------|
G|--7-7----7-7----7-7----7-7----9--9----9--9----9--9----9--9---|   (x2)
D|--8-8----8-8----8-8----8-8----10-10---10-10---10-10---10-10--|
A|--8-8----8-8----8-8----8-8----10-10---10-10---10-10---10-10--|
E|--6-6----6-6----6-6----6-6----8--8----8--8----8--8----8--8---|

Guitar 2 - (1:25)

e|-------------------------------8---------------------------8-------8-----|
B|--8---8-10-8---8-10-8---8-10-8-----10-8---8-10-8---8-10-8----11-8----11-8|
G|-------------------------------------------------------------------------|  
D|-------------------------------------------------------------------------|
A|-------------------------------------------------------------------------|
E|-------------------------------------------------------------------------|

e|----------------8--------------|
B|--8-10-8--(x4)-----11-8--(x4)--|
G|-------------------------------|
D|-------------------------------|
A|-------------------------------|
E|-------------------------------|

Repeat chorus

After bridge- both guitars repeat intro (2:16)

Chorus (2:36)

Outro- Guitar 1 (3:00)

(all transitions are slides)
e|----------------------------------------------------------|
B|----------------------------------------------------------|
G|--6-12---12^-10---6-12--------6-12---12^-10--10^-8--8^-6--|
D|----------------------------------------------------------|
A|----------------------------------------------------------|
E|----------------------------------------------------------|

I'm not positive about the ending...comment if you have any changes thanks!
            

comments powered by Disqus
↑ Back to top | Neon Trees Tabs for Animal. Lyrics for acoustic guitar and electric guitar. Tablatures and chords are parodies/interpretations of the original songs. You may use it for private study, scholarship, research or language learning purposes only