» » »

Neon Trees, Animal Bass tabs (ver.3)

Artists:  A B C D E F G H I J K L M N O P Q R S T U V W X Y Z # 

Animal Bass tabs (ver.3)

Neon Trees Tabs
 Rating:
3.4/5 (5 votes)
Animal lessons Tabs too difficult? Try these video lessons and learn fast
1
                I am 100% sure this tab is correct. I have reviewed every tab and video for the 
correct patterns and notes. Easy and very fun song to play. Enjoy!

Intro
G|---------------------------------------------------------|
D|---------------------------------------------------------|
A|-8x16---------------------------8x16---------------------|
E|------88888888-1010101010101010------88888888-666666666--|
                      (10's!)
Verse
G|-----------------------------------------------------------------------|
D|-------------------------------------------------------------------888-|
A|-13/8-88-888-888-888-8-------------------------------------------------|
E|----------------------88-888-888-888-866-666-666-666-688-888-888-88----|

G|-----------------------------------------------------------------------|
D|-----------------------------------------------------------------------|
A|-88-888-888-888-8------------------------------------------------------|
E|-----------------88-888-888-888-866-666-666-666-688-888-888-888-8---6~-|

Chorus
G|------------------------------------------------------|
D|-------------------------------------------------888--|
A|-8x16-----------8x16----------------88-888-888-88-----|
E|------8x16-6x16------8x16-6x16-8x16-------------------|

Verse
G|-----------------------------------------------------------------------|
D|-------------------------------------------------------------------888-|
A|-13/8-88-888-888-888-8-------------------------------------------------|
E|----------------------88-888-888-888-866-666-666-666-688-888-888-88----|

G|-----------------------------------------------------------------------|
D|-----------------------------------------------------------------------|
A|-88-888-888-888-8------------------------------------------------------|
E|-----------------88-888-888-888-866-666-666-666-688-888-888-888--------|

Chorus
G|--------------------------------------|
D|--------------------------------------|
A|-8x16-----------8x16------------------|
E|------8x16-6x16------8x16-6x16-8x16---|

Bridge
G|----------------------------------------------------------|
D|----------------------------------------------------------|
A|--------------8~-----------------8~-----------------------|
E|--6~--8~--6~-----8~--6~--8~--6~-----8~--66666666-66666666-|

G|-------------------------------------|
D|-------------------------------------|
A|-8x16---------------------------8x16-|
E|------88888888-1010101010101010------|

G|-----------------------------------------------------|
D|-----------------------------------------------------|
A|--------------------88-888-888-888-888-888-888-8/0---|
E|-88888888-66666666-----------------------------------|

Chorus 
G|--------------------------------------|
D|--------------------------------------|
A|-8x16-----------8x16------------------|
E|------8x16-6x16------8x16-6x16-8x16---|

Outro
G|--------------------------------------------------------|
D|--------------------------------------------------------|
A|-8x16---------------------------8x16--------------------|
E|------88888888-1010101010101010------66666666-88888888--|

G|------------------------|
D|------------------------|
A|-8x16-------------------|
E|------8x16-6x16-8x16-6~-|
            
Submit corrections

comments powered by Disqus
↑ Back to top | Neon Trees Bass for Animal. Lyrics for acoustic guitar and electric guitar. 1 Tablatures and chords are parodies/interpretations of the original songs. You may use it for private study, scholarship, research or language learning purposes only