» » »

Neon Trees, 1983 Tabs (ver.2)

Artists:  A B C D E F G H I J K L M N O P Q R S T U V W X Y Z # 

1983 Tabs (ver.2)

Neon Trees Tabs
Rating:
4/5 (5 votes)
1983 lessons Tabs too difficult? Try these video lessons and learn fast
                Standard Tuning

Intro/Post Chorus
Rhythm Guitar
e-5-5--5-5-5--5-5-5--5-5-5--5/6-6--6-6-6--6/-8--8--8---8/5-5-|
b-6-6--6-6-6--6-6-6--6-6-6--6/6-6--6-6-6--6/-8--8--8---8/6-6-|
g-5-5--5-5-5--5-5-5--5-5-5--5/7-7--7-7-7--7/-9--9--9---9/5-5-| 2x
d-7-7--7-7-7--7-7-7--7-7-7--7/8-8--8-8-8--8/10-10-10--10/7-7-|
a------------------------------------------------------------|
e------------------------------------------------------------|

Lead Guitar
e---------------------|
b---------------------|
g---------------------| 2x
d---------------------|
a---------------------|
e-1~--1-3-4-5-6~--8~--|

Verse
e-----5-5-6-6-5-5-----5-5-6-6-5-5-----5-5-6-6-5-5-----------------|
b-6-6-------------6-6-------------6-6-------------8-8-8-8-8-8-8-8-|
g-----------------------------------------------------------------| 2x
d-----------------------------------------------------------------|
a-----------------------------------------------------------------|
e-----------------------------------------------------------------|

Chorus
e-------------------------------------|
b-------------------------------------|
g----------33333333-55555555-33333333-|
d-33333333-33333333-55555555-33333333-|
a-33333333-11111111-33333333-11111111-|
e-11111111----------------------------|

Post chorus/Intro

Verse 2
e-----5-5-6-6-5-5-----5-5-6-6-5-5-----5-5-6-6-5-5-----------------|
b-6-6-------------6-6-------------6-6-------------8-8-8-8-8-8-8-8-|
g-----------------------------------------------------------------|
d-----------------------------------------------------------------|
a-----------------------------------------------------------------|
e-----------------------------------------------------------------|

e-------------------------------------------------|
b---------------------------------6-6-6-6-6-6-6-6-|
g-7-7-7-7-7-7-7-7-7-7-7-7-7-7-7-7-----------------|
d-------------------------------------------------|
a-------------------------------------------------|
e-------------------------------------------------|

Chorus

Bridge
e---------------------------------------------------------------|
b-6-6-6-5-5-5-----------------------6-6-6-5-5-5-8-8-8-8-8-8-8-8-|
g-------------7-7-7-5-5-5-5-5-5-5-5-----------------------------|
d---------------------------------------------------------------|
a---------------------------------------------------------------|
e---------------------------------------------------------------|

e-------------------------------------------------------------------------------------|
b-6-6-6-5-5-5-----------------------------------------------6-6-6-6-6-6-8-8-8-8-8-8---|
g-------------7-7-7-5-5-5-5-5-5-5-7-7-7-7-7-7-7-7-7-7-7-7-7---------------------------|
d-------------------------------------------------------------------------------------|
a-------------------------------------------------------------------------------------|
e-------------------------------------------------------------------------------------|

e---------------------------------------------------------|
b-10-10-8-8-10-10-8-8-10-8--10-10-8-8-10-10-8-8-10-8-10~--|
g--x--x-x-x--x--x-x-x--x-x---x--x-x-x--x--x-x-x--x-x--x~--|
d--7--7-5-5--7--7-5-5--7-5---7--7-5-5--7--7-5-5--7-5--7~--|
a---------------------------------------------------------|
e---------------------------------------------------------|

Final Chorus'
Midway through, one guitar plays the intro lead

end with
e-5~--
b-6~--
g-5~--
d-7~--
a-----
e-----
            
Submit corrections

comments powered by Disqus
↑ Back to top | Neon Trees Tabs for 1983. Lyrics for acoustic guitar and electric guitar. Tablatures and chords are parodies/interpretations of the original songs. You may use it for private study, scholarship, research or language learning purposes only