» » »

Animal Tabs (ver.3)

Artists:  A B C D E F G H I J K L M N O P Q R S T U V W X Y Z # 

Animal Tabs (ver.3)

Neon Trees
Rating:
0/5 (0 votes)

Hard to play? Try these video lessons and learn fast.
                RPT=Repeat
Intro
|---------------------------------------|
|-----9-9----------7-7--9-9----------7-7|
|---------6-6--9-9----------6-6--9-9----|
|---------------------------------------|
|---------------------------------------|
|---------------------------------------|

|---------------------------------------|
|---------------------------------------|
|-----9-9-9-9--8-8-8-8--6-6-6-6-6-6-6-6-| RPT once
|---------------------------------------|
|---------------------------------------|
|---------------------------------------|

Verse 1
|----------------------------------------------------------------------|
|----------------------------------------------------------------------|
|----------------------------------------------------------------------|
|----------------------------------------------------------------------|
|-----7-7-7-7-7-7-7-7-7-7-7-7-7-7-7-7----------------------------------|
|-------------------------------------7-7-7-7-7-7-7-7-7-7-7-7-7-7-7-7--|   
                                                                           
|----------------------------------------------------------------------|   
|----------------------------------------------------------------------|   
|----------------------------------------------------------------------|   
|----------------------------------------------------------------------|   
|---------------------------------------------------------------7777---|   
|-----5-5-5-5-5-5-5-5-5-5-5-5-5-5-5-5--7-7-7-7-7-7-7-7-7-7-7-7--5555---|
RPT all parts but final power chords.
Chous
RPT intro twice
|-----------------------------------------|
|-----9-9----------7-7--9-9-----------7-7-|
|---------6-6--9-9----------6-6--9-9------| RPT once
|-----------------------------------------|
|-----------------------------------------|
|-----------------------------------------|
Then play
|-----------------------------------------|
|-----------------------------------------|
|-----9-9-9-9--8-8-8-8--6-6-6-6-6-6-6-6---|
|-----------------------------------------|
|-----------------------------------------|
|-----------------------------------------|
Verse 2
|--------------------------------------------------------|
|--------------------------------------------------------|
|--------------------------------------------------------|
|-----99-9--99-9-----------------------------------------|
|-----77-7--77-7-99-9--99-9--77-7--77-7--99-9--99-9--7777|
|----------------77-7--77-7--55-5--55-5--77-7--77-7--5555|
Repeat all but final 4 power chords.
Chorus

Hope you find these tabs helpful!
            
Hard to play? Try these video lessons and learn fast. | Correct




comments powered by Disqus
↑ Back to top | Tablatures and chords are parodies/interpretations of the original songs. You may use it for private study, scholarship, research or language learning purposes only