» » »

Neon Trees, Animal Tabs (ver.4)

Artists:  A B C D E F G H I J K L M N O P Q R S T U V W X Y Z # 

Animal Tabs (ver.4)

Neon Trees Tabs
 Rating:
3.6/5 (5 votes)
Animal lessons Tabs too difficult? Try these video lessons and learn fast
1
                This is a good verison of the song. There are a lot of over-lapping guitar parts to the 
song. I hope you like it and I hope it works for you.
TIP:
I find for the Intor/riff barre you first finger over the 10th fret and use either your 
third(That's what I use) or your second finger for the 12th fret work.

Intro
Play twice play guitar 1's first part twice then finish with other part. Play intro twice.

Guitar 1
E|----------------------------------|
B|--10--10--------------------------|
G|------------------10--10--12--12--| X2
D|----------12--12------------------|
A|----------------------------------|
E|----------------------------------|

E|---------------------------------------------------------|
B|---------------------------------------------------------|
G|--10--10--10--9--9--9------------------------------------|
D|-----------------------12--12--12--12----12--12--12--12--|
A|---------------------------------------------------------|
E|---------------------------------------------------------|

Intro
Guitar 2
E|----------------------------------------------------------------|
B|----------------------------------------------------------------|
G|----------------------------------------------------------------|
D|------------------------------10--10--10--10----10--10--10--10--|
A|--8--8--8--8----8--8--8--8--------------------------------------|
E|----------------------------------------------------------------|

E|---------------------------|
B|---------------------------|
G|---------------------------|
D|---------------------------|
A|---------------------------|
E|--8--8--8--8----8--8--8--8-|

Ending 1.
E|------------------------------------|
B|------------------------------------|
G|------------------------------------|
D|------------------------------------|
A|------------------------------------|
E|--10--10--10--10----10--10--10--10--|

Ending second time
E|----------------------------|
B|----------------------------|
G|----------------------------|
D|----------------------------|
A|----------------------------|
E|--6--6--6--6----6--6--6--6--|

Verse
  F5                            C5
E|--------------|--------------|------------------|-----------|
B|--------------|--------------|------------------|-----------|
G|--------------|--------------|------------------|-----------|
D|--10----------|--------------|------------------|-----------|
A|--8-----------|--------------|--10--------------|-----------|
E|--------------|--------------|--8---------------|-----------|

  Bb                             C5
E|-------------|----------------|----------------|--------------|
B|-------------|----------------|----------------|--------------|
G|-------------|----------------|----------------|--------------|
D|-------------|----------------|----------------|--------------|
A|--8----------|----------------|--10------------|--------------|
E|--6----------|----------------|--8-------------|--------------|

Chorus is the same as the verse execpt you drop the last C5 chord.

F5
Here we go again

I kinda wanna be

C5
more than friends


So take it easy on me

Bb                      C5
I'm afraid you're never satisfied.


F5
Here we go again
We're sick like animals

   C5
We play pretend


You're just a cannibal
    Bb                        C5
And I'm afraid I wont get out alive
No I won't sleep tonight

F5
Oh, oh
I want some more

C5
Oh, oh

                     Bb
What are you waitin' for?

Take a bite of my heart

F5
tonight

Oh oh

I want some more

C5
Oh oh
                     Bb
What are you waitin' for?
C5
What are you waitin' for?

    Bb                          F5
Say goodbye to my heart tonight






Repeat through whole song
:]
            
Submit corrections

comments powered by Disqus
↑ Back to top | Neon Trees Tabs for Animal. Lyrics for acoustic guitar and electric guitar. 1 Tablatures and chords are parodies/interpretations of the original songs. You may use it for private study, scholarship, research or language learning purposes only