» » »

Muse, Micro Cuts Bass tabs (ver.2)

Artists:  A B C D E F G H I J K L M N O P Q R S T U V W X Y Z # 

Micro Cuts Bass tabs (ver.2)

Muse Tabs
 Rating:
4/5 (4 votes)
Micro Cuts lessons Tabs too difficult? Try these video lessons and learn fast
                


===== TABLATURE EXPLANATION ======
==================================
=          			 =
=   ----------			 =
=   ----0~---- Let Ring		 =
=   ----------			 =
=                                =
==================================

For the exact time listen the song!!

Intro:
G|----------------------------------------------------------|
D|----------------------------------------------------------|
A|--55-55-55-55-55-77-88-99-99-1010-1010-55-44-55-55-55-55--|
D|----------------------------------------------------------|


Verse:                             
G|-------------------------------------------| 
D|-------------------------------------------|
A|--55-77-88-99-1010-1010-55-44-55-55-55-55--|        
D|-------------------------------------------|   x 2


Chorus:
G|-------------------------------------------------------------------|
D|-------------------------------------------------------------------|
A|-------------------------------------------------------------------|
D|--5-5-5-5-5-5-5-5-0-0-0-0-0-0-0-0-5-5-5-5-5-5-5-5-5-5-5-5-5-5-5-5--|   x 2

then:
G|-------------------------------------------------------------------------------------------------|
D|-------------------------------------------------------------------------------------------------|
A|-------------------------------------------------------------------------------------------------|
D|--5-5-5-5-5-5-5-5-0-0-0-0-0-0-0-0-5-5-5-5-5-5-5-5-6-6-6-6-6-6-6-6-7-7-7-7-7-7-7-7-7-7-7-7-7-7-7-7|


Verse:                             
G|-------------------------------------------| 
D|-------------------------------------------|
A|--55-77-88-99-1010-1010-55-44-55-55-55-55--|        
D|-------------------------------------------|   x 2


Chorus:
G|-------------------------------------------------------------------|
D|-------------------------------------------------------------------|
A|-------------------------------------------------------------------|
D|--5-5-5-5-5-5-5-5-0-0-0-0-0-0-0-0-5-5-5-5-5-5-5-5-5-5-5-5-5-5-5-5--|   x 2

then:
G|--------------------------------------------------------------------------------------------------|
D|--------------------------------------------------------------------------------------------------|
A|--------------------------------------------------------------------------------------------------|
D|5-5-5-5-5-5-5-5-0-0-0-0-0-0-0-0-5-5-5-5-5-5-5-5-6-6-6-6-6-6-6-6-7-7-7-7-7-7-7-7-7-7-7-7-7-7-7-7-0~|


Coda:
G|-----------------------------------------------------------------------|
D|-----------------------------------------------------------------------|
A|--5-5-5-5-5-5-5-5-5-5-5-5-5-5-5-5-7-7-7-7-7-7-7-7-7-7-7-7-10-10-10-10--|
D|-----------------------------------------------------------------------|

G|-----------------------------------------------------------------------------------|
D|-----------------------------------------------------------------------------------|
A|--9-9-9-9-9-9-9-9-9-9-9-9-9-9-9-9-12-12-12-12-12-12-12-12-12-12-12-12-12-12-12-12--|
D|-----------------------------------------------------------------------------------|

G|-----------------------------------------------------------|
D|-----------------------------------------------------------|
A|--10-10-10-10-10-10-10-10-5-5-5-5-5-5-5-5-4-4-4-4-4-4-4-4--|
D|-----------------------------------------------------------|

G|-------------------------------------------------------|
D|-------------------------------------------------------|
A|--12-12-12-12-7-7-7-7-0-0-0-0-0-0-0-0-0-0-0-0-0-0-0-0--|
D|-------------------------------------------------------|


Outro (guitar for 2 times then this with bass):
G|-----------------------------------|
D|-----------------------------------|
A|--5-4-3-0---------------------3-4--|
D|----------6-5-3-0-3-0-5-6-7-0------|   x 2

(after this, guitar for 4 times) then this with bass:
G|-------------------|
D|-------------------|
A|--5-4-3-0----------|
D|----------6-5-3-0--|   x 8

G|---------------|
D|---------------|
A|---------------|
D|--0~-0~-0~-0~--|


Pleeeeeeeeease rate!!  Thanks    :-)
il buon Teo
            
Submit corrections

comments powered by Disqus
↑ Back to top | Muse Bass for Micro Cuts. Lyrics for acoustic guitar and electric guitar. Tablatures and chords are parodies/interpretations of the original songs. You may use it for private study, scholarship, research or language learning purposes only