» » »

Muse, Micro Cuts Bass tabs (ver.3)

Artists:  A B C D E F G H I J K L M N O P Q R S T U V W X Y Z # 

Micro Cuts Bass tabs (ver.3)

Muse Tabs
 Rating:
4/5 (4 votes)
Micro Cuts lessons Tabs too difficult? Try these video lessons and learn fast
1
                ------------------------------------------------------------------------
			     Micro Cuts - Muse
------------------------------------------------------------------------

Tuning: drop D

The timing is a bit strange, listen to the song for the exact timing

intro
G|---------------------------------------------------------------------|
D|---------------------22--33-44-55----55------------------------------|
A|-55--55--55--55--55------------------------55----44----55----55-55-55|
D|---------------------------------------------------------------------| 

Verse 1
G|------------------------------------------------------------------|
D|-----22--33-44-55----55-------------------------------------------|
A|-55------------------------55----44----55----55-55-55-------------|
D|------------------------------------------------------------------| x2

Chorus 1
G|------------------------------------------------------------------|
D|------------------------------------------------------------------|
A|------------------------------------------------------------------|
D|-55555555-00000000-55555555-55555555------------------------------| x2

G|------------------------------------------------------------------|
D|------------------------------------------------------------------|
A|------------------------------------------------------------------|
D|-55555555-00000000-55555555-66666666-77777777-77777777-77777777---|

G|------------------------------------------------------------------|
D|------------------------------------------------------------------|
A|------------------------------------------------------------------|
D|-77777777---------------------------------------------------------|

Pause before going into…

Verse 2
G|------------------------------------------------------------------|
D|-----22--33-44-55----55-------------------------------------------|
A|-55------------------------55----44----55----55-55-55-------------|
D|------------------------------------------------------------------| x2

Chorus 2
G|------------------------------------------------------------------|
D|------------------------------------------------------------------|
A|------------------------------------------------------------------|
D|-55555555-00000000-55555555-55555555------------------------------| x2

G|------------------------------------------------------------------|
D|------------------------------------------------------------------|
A|------------------------------------------------------------------|
D|-55555555-00000000-55555555-66666666-77777777-77777777-77777777---|

G|------------------------------------------------------------------|
D|------------------------------------------------------------------|
A|------------------------------------------------------------------|
D|-77777777---------------------------------------------------------|
Pause before coda

coda
G|-(10)10101010101010-1010101010101010-99999999-(12)12121212121212--|
D|------------------------------------------------------------------|
A|------------------------------------------------------------------|
D|------------------------------------------------------------------|

G|-(11)11111111111111-1111111111111111-(14)14141414141414-14141414--|
D|------------------------------------------------------------------|
A|------------------------------------------------------------------|
D|------------------------------------------------------------------|

G|-14141414-00000000-77777777-66666666------------------------------|
D|-------------------------------------7777-------------------------|
A|------------------------------------------7777--------------------|
D|-----------------------------------------------77777777-77777777--|

G|------------------------------------------------------------------|
D|------------------------------------------------------------------|
A|------------------------------------------------------------------|
D|-77777777-77777777------------------------------------------------|

Pause while guitar plays riff twice

G|------------------------------------------------------------------|
D|------------------------------------------------------------------|
A|------------------------------------------------------------------|
D|-12-11-10-0-7-6-5-0-3-0-5-6-7-0-10-11-----------------------------| x2

Then pause while guitar plays this twice

G|------------------------------------------------------------------|
D|------------------------------------------------------------------|
A|------------------------------------------------------------------|
D|-12-11-10-0-7-6-5-0-----------------------------------------------| x8

G|------------------------------------------------------------------|
D|------------------------------------------------------------------|
A|------------------------------------------------------------------|
D|-0--0--0--0-------------------------------------------------------|



| /  slide up
| \  slide down
| h  hammer-on
| p  pull-off
| ~  vibrato
| +  harmonic
| x  Mute note
========================================================================
            
Submit corrections

comments powered by Disqus
↑ Back to top | Muse Bass for Micro Cuts. Lyrics for acoustic guitar and electric guitar. 1 Tablatures and chords are parodies/interpretations of the original songs. You may use it for private study, scholarship, research or language learning purposes only