» » »

Muse, Micro Cuts Tabs (ver.3)

Artists:  A B C D E F G H I J K L M N O P Q R S T U V W X Y Z # 

Micro Cuts Tabs (ver.3)

Muse Tabs
Rating:
0/5 (0 votes)
Micro Cuts lessons Tabs too difficult? Try these video lessons and learn fast
                

drop d tuning (DADGBE)

verse

-------------10----------
-------10-------10----10-
----10----10-------10----
-12----------------------
-------------------------
-------------------------

-------------10----------------------10-------------------10----------10-
-------10-------10----10-------11-------11----11-------10----------10----
----10----10-------10-------12----12-------12-------10----------11-------
-12----------------------14----------------------12----------12----------

-------------10----------10----------------------10----------10----------
-------11-------11----11----11----11-------11-------11----11----11----11-
----12----12-------12----------12-------12----12-------12----------12----
-12----------------------------------12----------------------------------

-------------10----------10----------------------12----------12----------
-------10-------10----10----10----10-------10-------10----10----10----10-
----10----10-------10----------10-------12----12-------12----------12----
-12----------------------------------11----------------------------------

-------------10----------10-------------------10----------10----------10-
-------10-------10----10----10----10-------10----------10----------10----
----10----10-------10----------10-------10----------10----------10-------
-12----------------------------------12----------12----------12----------

the last riff (get the speed right and this is incredible!!)
|------------------------|-----------------------|
|------------------------|-----------------------|
|------------------------|-----------------------| 
|------------------------|-----------------------| x4
|-5--4--3--0-------------|-------------0----3--4-|
|-------------6--5--3--0-|-3--0--5--6-----0------|

|------------------------|
|------------------------|
|------------------------|
|------------------------| x3
|--5--4--3--0------------|
|-------------6--5--3--0-|

|------------------------|
|------------------------|
|------------------------|
|------------------------| 
|--5--4--3--0------------|
|-------------6--5--3—6/-| slide down the fretboard, and the come back up again to this:


|------------------------|
|------------------------|
|------------------------|
|------------------------| 
|--5--4--3--0------------|
|-------------6--5--3—0--| till the end of the song, not sure how many sorry.
            
Submit corrections

comments powered by Disqus
↑ Back to top | Muse Tabs for Micro Cuts. Lyrics for acoustic guitar and electric guitar. Tablatures and chords are parodies/interpretations of the original songs. You may use it for private study, scholarship, research or language learning purposes only