» » »

Muse, Man Of Mystery Bass tabs (ver.2)

Artists:  A B C D E F G H I J K L M N O P Q R S T U V W X Y Z # 

Man Of Mystery Bass tabs (ver.2)

Muse Tabs
Rating:
0/5 (0 votes)
Man Of Mystery lessons Tabs too difficult? Try these video lessons and learn fast
                -------------------------------------------------------------------------------
	                  MAN OF MYSTERY - MUSE
-------------------------------------------------------------------------------


Intro:

G|--------|--------|--------|--------|
D|--------|--------|--------|--------|
A|--------|--------|7-------|7-7-7-7-|
E|--------|--------|--------|--------|

Verse:

G|--------|--------|--------|--------|--------|--------|--------|--------|
D|7-------|--9-6---|7-------|--4-7-4-|--------|7-------|--------|--9-6---|
A|----5-7-|7-----7-|----4-7-|5-------|5-8-7-5-|------8-|5-8-5-8-|7-----7-|
E|--5-----|--------|--7-----|--------|--------|--5-8---|--------|--------|

G|--------|--------|--------|--------|--------|--------|--------|--------|
D|7-------|--9-6---|7-------|--4-7-4-|--------|7-------|----6-6-|7---7---|
A|----5-7-|7-----7-|----4-7-|5-------|5-8-7-5-|------8-|7-7-----|--7-----|
E|--5-----|--------|--7-----|--------|--------|--5-8---|--------|--------|

Part two:
G|--------|--------|--------|--------|--------|--------|--------|--------|
D|--------|7-------|--9-6---|7-------|--------|7-------|--------|--------|
A|5-8-7-5-|------8-|7-----7-|--------|5-8-7-5-|------8-|----5-5-|7-------|
E|--------|--5-8---|--------|--------|--------|--5-8---|7-7-----|--------|

G|--------|--------|--------|--------|--------|--------|--------|--------|
D|7-------|--9-6---|7-------|--4-7-4-|--------|7-------|----6-6-|7---7---|
A|----5-7-|7-----7-|----4-7-|5-------|5-8-7-5-|------8-|7-7-----|--7-----|
E|--5-----|--------|--7-----|--------|--------|--5-8---|--------|--------|

G|--------|--------|--------|--------|--------|--------|--------|
D|--------|7-------|--9-6---|7-------|--------|7-------|--------|
A|5-8-7-5-|------8-|7-----7-|--------|5-8-7-5-|------8-|----5-5-|
E|--------|--5-8---|--------|--------|--------|--5-8---|7-7-----|

Build up:

G|---------------------------|----------------------|
D|---------------------------|----------------------|
A|---------------------------|----------------------|
E|12-0-0-0—--10-12-0-0-0---10|-12-0-0---10-12-0-0-0-|

Guitar solo:

G|----------------|----------------|----------------|----------------|
D|------5---------|7---------------|--9-6-----------|----------------|
A|5-7-8---8-7-5-7-|--7-5-----5-----|7-----8-7-5-----|----------------|
E|----------------|------7-8---8-7-|------------8-7-|5---------------|

G|----------------|----------------|----------------|----------------|
D|--------5-------|--------5-------|--9-6-----------|----------------|
A|5-8-7-5---8-7-5-|5-8-7-5---8-7-5-|7-----8-7-5-7-5-|7---------------|
E|----------------|----------------|----------------|----------------|

Last Verse:

G|--------|--------|--------|--------|--------|--------|--------|--------|
D|7-------|--9-6---|7-------|--4-7-4-|--------|7-------|----6-6-|7---7---|
A|----5-7-|7-----7-|----4-7-|5-------|5-8-7-5-|------8-|7-7-----|--7-----|
E|--5-----|--------|--7-----|--------|--------|--5-8---|--------|--------|

G|--------|--------|--------|--------|--------|--------|--------|--------|
D|7-------|--9-6---|7-------|--4-7-4-|--------|7-------|----6-6-|7-------|
A|----5-7-|7-----7-|----4-7-|5-------|5-8-7-5-|------8-|7-7-----|--7-0---|
E|--5-----|--------|--7-----|--------|--------|--5-8---|--------|--------|

Rate and comment plx
            
Submit corrections

comments powered by Disqus
↑ Back to top | Muse Bass for Man Of Mystery. Lyrics for acoustic guitar and electric guitar. Tablatures and chords are parodies/interpretations of the original songs. You may use it for private study, scholarship, research or language learning purposes only