» » »

Muse, Man Of Mystery Tabs (ver.1)

Artists:  A B C D E F G H I J K L M N O P Q R S T U V W X Y Z # 

Man Of Mystery Tabs (ver.1)

Muse Tabs
Rating:
0/5 (0 votes)
Man Of Mystery lessons Tabs too difficult? Try these video lessons and learn fast
                Muse
Man of Mystery

INTRO
e|12----------------------12-----------------------|
B|15b17-------------------15b17--------------------|
G|-------------------------------------------------|
D|-------------------------------------------------|
A|-------------------------------------------------|
E|------12/-0-000-000-000-------15/-0-000-000-000--|

VERSE
e|--------1-0--------1-0-1-0--------1--0--------0---0----------0--------------------------|
B|-----1----------0-------------------------------3---3----------3--------3-1-3-1---------|
G|--2----------1--------------0--3-----------2--------------2----------2------------------|
D|----------------------------------------4--------------3----------2---------------------|
A|----------------------------------------------------------------------------------------|
E|----------------------------------------------------------------------------------------|

-------------------------------------|
1--0--1--0--1--0--1-0-1-0------------|
-------------------------------------|
-------------------------------------|
-------------------------------------|
-------------------------------------|

e|--------1-0--------1-0-1-0--------1--0--------0---0----------0--------------------------|
B|-----1----------0-------------------------------3---3----------3--------3-1-3-1---------|
G|--2----------1--------------0--3-----------2--------------2----------2------------------|
D|----------------------------------------4--------------3----------2---------------------|
A|----------------------------------------------------------------------------------------|
E|----------------------------------------------------------------------------------------|

-------------------------------------|
1-0---0-1-0-1\-1---------------------|
----3-------2\-2---------------------|
------------2\-2---------------------|
-------------------------------------|
-------------------------------------|

e|--------7-5--------7-5-7-5-------------------------------1-----1---------0-----0--------------|
B|-----6----------5----------------------------------------3-----3---------1-----1--------------|
G|--7----------5-------------------------------------------2-----2---------2-----2--------------|
D|----------------------------6-5-4-3------------------------0-0-----------2-----2--------------|
A|-------------------------------------5-4-5-6-5--5p5p5p5p--------0p0p0p0p---0-0----------------|
E|----------------------------------------------------------------------------------------------|

----------------12----12----12-------|
----------------15b17-15b17-15b17----|
-------------------------------------|
---------0---0-----------------------|
-2222222---2-------------------------|
-------------------------------------|

e|--------1-0--------1-0-1-0--------1--0--------0---0----------0--------------------------|
B|-----1----------0-------------------------------3---3----------3--------3-1-3-1---------|
G|--2----------1--------------0--3-----------2--------------2----------2------------------|
D|----------------------------------------4--------------3----------2---------------------|
A|----------------------------------------------------------------------------------------|
E|----------------------------------------------------------------------------------------|

-------------------------------------|
1-0---0-1-0-1\-1---------------------|
----3-------2\-2---------------------|
------------2\-2---------------------|
-------------------------------------|
-------------------------------------|

e|--1~-5~------------------------------1~-5~--777777--------------------------------------|
B|--3~-5~----------5---5---------------3~-5~--777777--------------------------------------|
G|--2~-5~----------7b9-7b9-7--5-----5--2~-5~--888888--------------------------------------|
D|--0~-7~-6-5-4-3----------------7-----0~-7~--999999--------------------------------------|
A|--------------------------------------------------------6/7----6/7----6/7---------------|
E|---------------------------------------------------0-000----000----000----000-----------|

e|--12-------12---------
B|-----15b17----15b17---
G|----------------------  improvisation.. 
D|----------------------  *peace
A|----------------------
E|----------------------

e|--------1-0--------1-0-1-0--------1--0--------0---0----------0--------------------------|
B|-----1----------0-------------------------------3---3----------3--------3-1-3-1---------|
G|--2----------1--------------0--3-----------2--------------2----------2------------------|
D|----------------------------------------4--------------3----------2---------------------|
A|----------------------------------------------------------------------------------------|
E|----------------------------------------------------------------------------------------|

------------------|---15--------------|
1-0---0-1-0-1\-1--|---17b19-----------|
----3-------2\-2--|-------------------|
------------2\-2--|-------------------|
------------------|-------------------|
------------------|-------------------|
            
Submit corrections

comments powered by Disqus
↑ Back to top | Muse Tabs for Man Of Mystery. Lyrics for acoustic guitar and electric guitar. Tablatures and chords are parodies/interpretations of the original songs. You may use it for private study, scholarship, research or language learning purposes only