» » »

Man Of Mystery Bass tabs (ver.1)

Artists:  A B C D E F G H I J K L M N O P Q R S T U V W X Y Z # 

Man Of Mystery Bass tabs (ver.1)

Muse
Rating:
0/5 (0 votes)

Hard to play? Try these video lessons and learn fast.
                

Intro

G||--------------|--------------------|
D||--------------|--------------------|
A||--------------|--------------------|
E||--------------|--0-000-000-000-00--|

Theme

G||----------|---------|---------|---------|---------|---------|---------|----------|
D||--7-------|---9-6---|-7-------|---4-7-4-|---------|-7-------|---------|---9-6----|
A||--------8-|-7-----7-|-----4-7-|-5-------|-5-8-7-5-|-------8-|-5-8-5-8-|-7-----7--|
E||----5-8---|---------|---5-----|---------|---------|---5-8---|---------|----------|

G||----------|---------|---------|---------|---------|---------|---------|----------|
D||--7-------|---9-6---|-7-------|---4-7-4-|---------|-7-------|---------|-7---7----|
A||--------8-|-7-----7-|-----4-7-|-5-------|-5-8-7-5-|-------8-|-5-5-7-7-|---7------|
E||----5-8---|---------|---5-----|---------|---------|---5-8---|---------|----------|

Variations

G||----------|---------|---------|---------|---------|---------|---------|----------|
D||----------|-7-------|---9-6---|-7-------|---------|-7-------|-9-9-----|----------|
A||--5-8-7-5-|-------8-|-7-----7-|---------|-5-8-7-5-|-------8-|-----5-5-|-7--------|
E||----------|---5-8---|---------|---------|---------|---5-8---|---------|----------|

G||----------|---------|---------|---------|---------|---------|---------|----------|
D||--7-------|---9-6---|-7-------|---4-7-4-|---------|-7-------|---------|-7---7----|
A||--------8-|-7-----7-|-----4-7-|-5-------|-5-8-7-5-|-------8-|-5-5-7-7-|---7------|
E||----5-8---|---------|---5-----|---------|---------|---5-8---|---------|----------|

G||----------|---------|---------|---------|---------|---------|----------|
D||----------|-7-------|---9-6---|-7-------|---------|-7-------|----------|
A||--5-8-7-5-|-------8-|-7-----7-|---------|-5-8-7-5-|-------8-|-----5-5--|
E||----------|---5-8---|---------|---------|---------|---5-8---|-7-7------|

Break Down

G||------------------|------------------|
D||------------------|------------------|
A||--7-7-7-7-7-7-7-7-|------------------|
E||------------------|-0-0-0-0-0-0-0-0--|

Solo

G||----------|---------|---------|---------|---------|---------|----------|
D||--------5-|---------|-7-------|---------|---9-6---|---------|----------|
A||--5-7-8---|-8-7-5-7-|---8-7-5-|---5-----|-7-----8-|-7-5-----|----------|
E||----------|---------|---------|-8---8-7-|---------|-----8-7-|-5--------|

G||----------|---------|---------|---------|---------|---------|----------|
D||----------|-5-------|---------|-5-------|---9-6---|---------|----------|
A||--5-8-7-5-|---8-7-5-|-5-8-7-5-|---8-7-5-|-7-----8-|-7-5-7-5-|-7--------|
E||----------|---------|---------|---------|---------|---------|----------|

Verse 3

G||----------|---------|---------|---------|---------|---------|---------|----------|
D||--7-------|---9-6---|-7-------|---4-7-4-|---------|-7-------|---------|-7---7----|
A||--------8-|-7-----7-|-----4-7-|-5-------|-5-8-7-5-|-------8-|-5-5-7-7-|---7------|
E||----5-8---|---------|---5-----|---------|---------|---5-8---|---------|----------|

G||----------|---------|---------|---------|---------|---------|---------|----------|
D||--7-------|---9-6---|-7-------|---4-7-4-|---------|-7-------|---------|-7--------|
A||--------8-|-7-----7-|-----4-7-|-5-------|-5-8-7-5-|-------8-|-5-5-7-7-|---7-0----|
E||----5-8---|---------|---5-----|---------|---------|---5-8---|---------|----------|
            
Hard to play? Try these video lessons and learn fast. | Correct




comments powered by Disqus
↑ Back to top | Tablatures and chords are parodies/interpretations of the original songs. You may use it for private study, scholarship, research or language learning purposes only