» » »

Muse, In Your World Tabs (ver.3)

Artists:  A B C D E F G H I J K L M N O P Q R S T U V W X Y Z # 

In Your World Tabs (ver.3)

Muse Tabs
 Rating:
4/5 (4 votes)
In Your World lessons Tabs too difficult? Try these video lessons and learn fast
1
                Tuning    : Standard

Intro:

E|--------------------------------------------------------------------------------|
B|--------------------------------------------------------------------------------|
G|--------------------------------------------------------------------------------|
D|-----12--10--9-----------------9-------12--10--9------------------9-------------|
A|-12--------------12--11--12------12----------------12--11--12-------------------|
E|--------------------------------------------------------------------------------|

E|--------------------------------------------------------------------------------|
B|--------------------------------------------------------------------------------|
G|--------------------------------------------------------------------------------|
D|------12--10--9-----------------9-----------------9--10--12--10---9-------------|
A|-12---------------12--11--12------12--11--12--------------------------12--------|
B|--------------------------------------------------------------------------------|

Pre-chorus:

E|--------------------------------------------------------------------------------|
B|--------------------------------------------------------------------------------|
G|--------------------------------------------------------------------------------|  
D|--5---7---9---10---9------------------------------------------------------------|  
A|--5---7---9---10---9------------------------------------------------------------|
E|--3---5---7----8---7------------------------------------------------------------|

Chorus:

E|--------------------------------------------------------------------------------|
B|--------------------------------------------------------------------------------|
G|-10-10-------------10-10------------9-9---------9-9---------9-9-----------------|
D|-10-10--10-10-10---10-10--10-10-10--9-9--7-7-7--9-9--7-7-7--9-9-----------------|
A|--8--8--10-10-10---8--8---10-10-10--7-7--7-7-7--7-7--7-7-7--7-7-----------------|
E|---------8--8--8-----------8--8--8-------5-5-5-------5-5-5----------------------|

End Solo:

E|--------------------------------------------------------------------------------|
B|--------------------------------------------------------------------------------|
G|--------------------------------------------------------------------------------|
D|-----12--10--9-----------------9-------12--10--9------------------9-------------|
A|-12--------------12--11--12------12----------------12--11--12-------------------|
E|--------------------------------------------------------------------------------|

E|--------------------------------------------------------------------------------|
B|--------------------------------------------------------------------------------|
G|--------------------------------------------------------------------------------|
D|------12--10--9-----------------9-----------------9--10--12--10---9-------------|
A|-12---------------12--11--12------12--11--12--------------------------12--------|
E|--------------------------------------------------------------------------------|

E|--------------------------------------------------------------------------------|
B|--------------------------------------------------------------------------------|
G|-------------------------------------------------9------9--10--9--10------------|
D|-----------------9--10--9--10--12--10--12-----12--------------------------------|
A|--12--11--12--------------------------------------------------------------------|
E|--------------------------------------------------------------------------------| 

E|--------------------------------------------------------------------------------|
B|--------------------------------------------------------------------------------|
G|--12--10--9--10--9-------9------------------------------------------------------|
D|------------------------12-----12--10--12--10--9--10--12--10--9-----------------|
A|--------------------------------------------------------------------------12----|
E|--------------------------------------------------------------------------------|

Order:

Intro x2
Pre Chorus 
Chorus x3
Intro x4
Pre Chorus
Chorus x3
Intro 
Pre Chorus
Chorus x3
End Solo

Lyric's:

I'm hurting you again,
Too lonely too pretend,
Like everything is new,
I promised you to,

Blow, it, all, away......

In your world,
No one is trying alone
In your world 
No one is dying alone

Too broken to belong,
To weak to sing along,
I'll comfort you my friend,
Helping you to,

Blow, it, all, away......

In your world,
No one is trying alone,
In your world,
No one is dying alone.

This is pretty good but not quite perfect  I have just corrected the prechorus and chorus now they are right! pPease rate it and post
any corrections for it to me!thanks!:)
            
Submit corrections

comments powered by Disqus
↑ Back to top | Muse Tabs for In Your World. Lyrics for acoustic guitar and electric guitar. 1 Tablatures and chords are parodies/interpretations of the original songs. You may use it for private study, scholarship, research or language learning purposes only