» » »

Muse, In Your World Tabs (ver.2)

Artists:  A B C D E F G H I J K L M N O P Q R S T U V W X Y Z # 

In Your World Tabs (ver.2)

Muse Tabs
Rating:
0/5 (0 votes)
In Your World lessons Tabs too difficult? Try these video lessons and learn fast
                Note: The D string must be tuned up to E to play this tab correctly.
           All notes in the riff are tapped with the left hand 
       

Riff  1:                                                  
e---------------------------------------          
B---------------------------------------          
G--------7p0----------------------------          
E--5p0------8p0--7p0--5p0--4p0--5p0--7--          
A---------------------------------------          
E--------------------------------------- x3 

Then 

Riff  2:
e--------------------------------------
B--------------------------------------
G------------------------7p0-----------
E-5p0--4p0--5p0--7p0-8p0-----8p0-7p0-5-
A--------------------------------------
E--------------------------------------



Play the above two riffs x2

Then the bass comes in for the verse with no guitar

Verse 1:

Im hurting you again,
Too lonely to pretend,
Like everything is new,
I promise you to

Blow it all away


Chorus:
e----------------------------------------------------------------
B----------------------------------------------------------------
G--10-10--5-5-5-5--10-10--5-5-5-5---9-9--2-2-2-2---9-9--2-2-2-2--
E---8--8--3-3-3-3---8--8--3-3-3-3---7-7--0-0-0-0---7-7--0-0-0-0--
A---8--8--3-3-3-3---8--8--3-3-3-3---7-7--0-0-0-0---7-7--0-0-0-0--
E----------------------------------------------------------------  x2
 
In your world,
No one is dying alone,
In your world,
No one is dying alone

Then play

Riff  1:                                                  
e---------------------------------------          
B---------------------------------------          
G--------7p0----------------------------          
E--5p0------8p0--7p0--5p0--4p0--5p0--7--          
A---------------------------------------          
E--------------------------------------- x3 

Then 

Riff  2:
e--------------------------------------
B--------------------------------------
G------------------------7p0-----------
E-5p0--4p0--5p0--7p0-8p0-----8p0-7p0-5-
A--------------------------------------
E--------------------------------------

Verse 2:

Too broken to belong,
Too meek to sing along,
Ill comfort yuo my friend,
Helping you to

Blow it all away


Chorus:
e--------------------------------------------------------------
B--------------------------------------------------------------
G-10-10--5-5-5-5--10-10--5-5-5-5---9-9--2-2-2-2---9-9--2-2-2-2-
E--8--8--3-3-3-3---8--8--3-3-3-3---7-7--0-0-0-0---7-7--0-0-0-0-
A--8--8--3-3-3-3---8--8--3-3-3-3---7-7--0-0-0-0---7-7--0-0-0-0-
E-------------------------------------------------------------- x2
 
In your world,
No one is dying alone,
In your world,
No one is dying alone

Outro:

e------------------------------
B------------------------------
G------7p0---------------------
E-5p0------8p0-7p0-5p0-4p0-7p0-
A------------------------------
E------------------------------ x3

Outro:

e------------------------------
B------------------------------
G------7p0---------------------
E-5p0------8p0-7p0-5p0-4p0-7p0-
A------------------------------
E------------------------------ x3

e-------------------------------------------------------------------
B-------------------------------------------------------------------
G--------------------------9p0-10p0-9p0-10p0-12p0-10p0-9p0-10p0-9p0-
E-5p0-4p0-5p0-7p0-8p0-10p0------------------------------------------
A-------------------------------------------------------------------
E-------------------------------------------------------------------

e-----------------------------------
B-----------------------------------
G-----------------------------------
E-10p0-8p0-7p0-8p0-10p0-8p0-7p0-5p0-
A-----------------------------------
E-----------------------------------
            

comments powered by Disqus
↑ Back to top | Muse Tabs for In Your World. Lyrics for acoustic guitar and electric guitar. Tablatures and chords are parodies/interpretations of the original songs. You may use it for private study, scholarship, research or language learning purposes only