» » »

Muse, In Your World Bass tabs (ver.1)

Artists:  A B C D E F G H I J K L M N O P Q R S T U V W X Y Z # 

In Your World Bass tabs (ver.1)

Muse Tabs
 Rating:
4/5 (4 votes)
In Your World lessons Tabs too difficult? Try these video lessons and learn fast
                drop D tuning or standard tuning

intro
G|------------------------------4-5-------------0-2-------------------|
D|--------------0-2-3-3-3-3-3-3-----0-0-0-0-0-0-----2-2-2-2-2-0-------|
A|--0-0-0-0-0-0-------------------------------------------------3-2---|
D|--------------------------------------------------------------------|

verse
G|------------------------------4-5-------------0-2-------------0-2---|
D|--------------2-3-3-3-3-3-3-3-----0-0-0-0-0-0-----2-2-2-2-2-2-------|
A|--0-0-0-0-0-0-------------------------------------------------------|
D|--------------------------------------------------------------------|

G|------------------------------4-5-------------0-2-------------------|
D|--------------2-3-3-3-3-3-3-3-----0-0-0-0-0-0-----2-2-2-2-2-0-------|
A|--0-0-0-0-0-0-------------------------------------------------3-----|
D|--------------------------------------------------------------------|

pre-chorus
G|----------------------------------2-------2-------1---------1-1-----|
D|----------0-----0-2---0-2-3-0-2-3---3-2-3---3-2-3---2-1-2-3---------|
A|--3-0-2-3---2-3-----3-----------------------------------------------|
D|--------------------------------------------------------------------|

chorus
G|--------------------------------------------------------------------|
D|------------3-3-------------2-2-------------2-2-------------3-3-----|
A|--3---3-3-3-------3---3-3-3-------0---0-0-0-------0---0-0-0---------|
D|--------------------------------------------------------------------|

outro
G|--------------------------------------------------------------------|
D|------------------3-3-3-3-3-3-3-3-0-0-0-0-0-0-0-0-2-2-2-2-2-2-2-2---|
A|--0-0-0-0-0-0-0-0---------------------------------------------------|
D|--------------------------------------------------------------------|

G|----------------------------------------------------------------------------|
D|------------------3-3-3-3-3-3-3-3-0-0-0-0-0-0-0-0-2-2-2-2-2-0---------------|
A|--0-0-0-0-0-0-0-0---------------------------------------------3-2-0---------|
D|----------------------------------------------------------------------------|
            
Submit corrections

comments powered by Disqus
↑ Back to top | Muse Bass for In Your World. Lyrics for acoustic guitar and electric guitar. Tablatures and chords are parodies/interpretations of the original songs. You may use it for private study, scholarship, research or language learning purposes only