» » »

Glorious Bass tabs (ver.2)

Artists:  A B C D E F G H I J K L M N O P Q R S T U V W X Y Z # 

Glorious Bass tabs (ver.2)

Muse
Rating:
0/5 (0 votes)

Hard to play? Try these video lessons and learn fast.
                Muse
Glorious (Bonus track)
Black Holes And Revelations

This song is really easy to play on bass.

/ = Slide (in case you didn't know, you'd be suprised!)



Intro Part I:

G|----------------|----------------|----------------|----------------|
D|----------------|----------------|----------------|----------------|
A|----------------|----------------|----------------|----------------|
E|12----------////|0-----------////|16----------////|4---------------|


G|----------------|----------------|----------------|----------------|
D|----------------|----------------|----------------|----------------|
A|----------------|----------------|----------------|----------------|
E|12----------////|0-----------////|16----------////|4---------------|

Intro Part II:

G|----------------|----------------|----------------|----------------|
D|2222222222222222|2222222222222222|----------------|--------11122244|
A|----------------|----------------|4444444444444444|44444444--------|
E|----------------|----------------|----------------|----------------|


G|----------------|----------------|----------------|----------------|
D|2222222222222222|2222222222222222|4444444444444444|4444444444444444|
A|----------------|----------------|----------------|----------------|
E|----------------|----------------|----------------|----------------|


Verse I:

G|----------------|----------------|----------------|----------------|
D|----------------|----------------|----------------|----------------|
A|----------------|----------------|----------------|----------------|
E|12----------////|0-----------////|16----------////|4---------------|


G|----------------|----------------|----------------|----------------|
D|----------------|----------------|----------------|----------------|
A|----------------|----------------|----------------|----------------|
E|12----------////|0-----------////|16----------////|4---------------|


Pre-chorus:

G|----------------|----------------|----------------|----------------|
D|2222222222222222|2222222222222222|----------------|--------11122244|
A|----------------|----------------|4444444444444444|44444444--------|
E|----------------|----------------|----------------|----------------|


G|----------------|----------------|----------------|----------------|
D|2222222222222222|2222222222222222|4444444444444444|4444444444444444|
A|----------------|----------------|----------------|----------------|
E|----------------|----------------|----------------|----------------|


Chorus:

G|----------------|----------------|----------------|----------------|
D|----------------|----------------|----------------|----------------|
A|2--2--2-2--2---2|2--2--2-2--2---2|2--2--2-2--2---2|2--2--2-2--2---2|
E|----------------|----------------|----------------|----------------|


G|----------------|----------------|----------------|----------------|
D|----------------|----------------|----------------|----------------|
A|2--2--2-2--2---2|2--2--2-2--2---2|----------------|----------------|
E|----------------|----------------|0--0--0-0--0---0|0--0--0-0--0---0|


G|----------------|----------------|----------------|----------------|
D|----------------|----------------|----------------|----------------|
A|----------------|----------------|----------------|----------------|
E|4--4--4-4--4---4|4--4--4-4--4---4|0--0--0-0--0---0|0--0--0-0--0---0|


G|----------------|----------------|----------------|----------------|
D|----------------|----------------|----------------|----------------|
A|2--2--2-2--2---2|2--2--2-2--2---2|----------------|----------------|
E|----------------|----------------|0--0--0-0--0---0|0--0--0-0--0---0|


G|----------------|----------------|----------------|----------------|
D|----------------|----------------|----------------|----------------|
A|----------------|----------------|----------------|----------------|
E|4--4--4-4--4---4|4--4--4-4--4---4|0--0--0-0--0---0|0--0--0-0--0---0|


Verse II:

G|----------------|----------------|----------------|----------------|
D|----------------|----------------|----------------|----------------|
A|----------------|----------------|----------------|----------------|
E|12----------////|0-----------////|16----------////|4---------------|


G|----------------|----------------|----------------|----------------|
D|----------------|----------------|----------------|----------------|
A|----------------|----------------|----------------|----------------|
E|12----------////|0-----------////|16----------////|4---------------|


Pre-chorus:

G|----------------|----------------|----------------|----------------|
D|2222222222222222|2222222222222222|----------------|--------11122244|
A|----------------|----------------|4444444444444444|44444444--------|
E|----------------|----------------|----------------|----------------|


G|----------------|----------------|----------------|----------------|
D|2222222222222222|2222222222222222|4444444444444444|4444444444444444|
A|----------------|----------------|----------------|----------------|
E|----------------|----------------|----------------|----------------|


Chorus:

G|----------------|----------------|----------------|----------------|
D|----------------|----------------|----------------|----------------|
A|2--2--2-2--2---2|2--2--2-2--2---2|----------------|----------------|
E|----------------|----------------|0--0--0-0--0---0|0--0--0-0--0---0|


G|----------------|----------------|----------------|----------------|
D|----------------|----------------|----------------|----------------|
A|----------------|----------------|----------------|----------------|
E|4--4--4-4--4---4|4--4--4-4--4---4|0--0--0-0--0---0|0--0--0-0--0---0|


G|----------------|----------------|----------------|----------------|
D|----------------|----------------|----------------|----------------|
A|2--2--2-2--2---2|2--2--2-2--2---2|----------------|----------------|
E|----------------|----------------|0--0--0-0--0---0|0--0--0-0--0---0|


G|----------------|----------------|----------------|----------------|
D|----------------|----------------|----------------|----------------|
A|----------------|----------------|----------------|----------------|
E|4--4--4-4--4---4|4--4--4-4--4---4|0--0--0-0--0---0|0--0--0-0--0---0|


Outro:

G|----------------|----------------|----------------|----------------|
D|2222222222222222|2222222222222222|4444444444444444|4444444444444444|
A|----------------|----------------|----------------|----------------|
E|----------------|----------------|----------------|----------------|


G|----------------|----------------|----------------|----------------|
D|----------------|--------11122244|2222222222222222|2222222222222222|
A|4444444444444444|44444444--------|----------------|----------------|
E|----------------|----------------|----------------|----------------|

G|----------------|----------------|----------------|----------------|
D|4444444444444444|4444444444444444|----------------|----------------|
A|----------------|----------------|2-----|----------------|
E|----------------|----------------|----------------|----------------|



Any queries, let me know.
            
Hard to play? Try these video lessons and learn fast. | Correct




comments powered by Disqus
↑ Back to top | Tablatures and chords are parodies/interpretations of the original songs. You may use it for private study, scholarship, research or language learning purposes only