>
 >
Glorious 1

Glorious 1 Guitar Tabs

Muse - Glorious 1 chords, tabs, tablatures, lyrics

Guitar lessons | Add/correct | Request | Top 50 tabs Artists:  A B C D E F G H I J K L M N O P Q R S T U V W X Y Z 0-9

Glorious 1 Guitar Tabs – Muse

CD, Sheet music, Poster

Do you like Glorious 1? Share with your friends now
Bass TabsBass Tabs v2Bass Tabs v3ChordsTabsTabs v2Tabs v3Tabs v4Ukulele
Muse
Glorious [Bonus Track]
Black Holes & Revelations -- 2006

Standard (E A D G B E)
*Chords are listed at end of song

Main Riff
e|---------------------|
B|---------------------|
G|---------------------|
D|--9--8--9---11--9-8--|
A|----7--7--7----7-----|
E|---------------------|

Intro - 00:10-01:24 (Piano)
e|---------------------|
B|--12-11-12-14-12-11--|
G|---------------------|
D|---------------------|
A|---------------------|
E|---------------------|

Guitar - 00:27-00:46
E5 E5 B/D# B/D# [2x]

Main Riff - 00:47-01:05

Verse 1
E5   E5     B/D#  G#5
Rose-tinted view
    E5              E5             B/D#  G#5
And satellites that compromise the truth
             Main Riff
But I wanted more
With the cuts and the bruises
Touch my face
A hopeless embrace

Pre-Chorus (Fast picking)
e|-------------|
B|-------------|
G|--8/9/10/11--|[2x]
D|-------------|
A|-------------|
E|-------------|

Chorus (Continue fast picking)
    Faith      it drives me aw---ay    but it turns me on
e|-----------------------------------------------------------------|
B|-----------------------------------------------------------------|
G|--8----9--10----11--------12---13--14----15----------16--18--19--|
D|-----------------------------------------------------------------|
A|-----------------------------------------------------------------|
E|-----------------------------------------------------------------|

Like a strangers l---o---v---e  It rockets through the universe
e|---------------------------------15------14----------12--11--|
B|---------------17--18--19--20--------------------------------|
G|---20--------------------------------------------------------|
D|-------------------------------------------------------------|
A|-------------------------------------------------------------|
E|-------------------------------------------------------------|

 It fuels the lies, it feeds the curse and we  too could be  glorious!
e|--15--------16-------18--------19--------19--18--16----14--14---12--|
B|--------------------------------------------------------------------|
G|--------------------------------------------------------------------|
D|--------------------------------------------------------------------|
A|--------------------------------------------------------------------|
E|--------------------------------------------------------------------|
Note: Octaves might sound better for the chorus then single notes.  If you'd rather me 
it out like that comment on the tab and I will change it.

Interlude
Main Riff [4x]

Verse 2
E5  E5      B/D#   G#5
I   need to believe
                 Main Riff
But I still want more
With the cuts and the bruises
Don't close the door
On what you adore

Chorus

Outro
Haven't figure out the outro yet -- I'll update the tab when I do.

*Chords Used
    E5 or Em  B/D#  G#5
E|---------------------|
B|---------------------|
G|--9------------------|
D|--9-----2---9-----6--|
A|--7-----2---6-----6--|
E|--------0---------4--|





Comments


Popular Muse tabs & chords
Animals 2 Bass Tabs
Cave 2 Bass Tabs
Easily Bass Tabs
Muscle Museum 2 Bass Tabs
Invincible Chords
Neutron Star Collision 4 Chords
Balloonatic Tabs
In Your World 4 Tabs
Map Of Your Head 3 Tabs
Stockholm Syndrome 1 Tabs


Song lyrics



↑ Back to top | Tablatures and chords are parodies/interpretations of the original songs. You may use it for private study, scholarship, research or language learning purposes only
© 2014 AZChords.com Contact us | Privacy policy | DMCA | Add/correct tabs | Request tabs | Top 50 tabs