» » »

Muse, Glorious Bass tabs (ver.1)

Artists:  A B C D E F G H I J K L M N O P Q R S T U V W X Y Z # 

Glorious Bass tabs (ver.1)

Muse Tabs
 Rating:
4/5 (4 votes)
Glorious lessons Tabs too difficult? Try these video lessons and learn fast
                yeh another awesome song by muse, and very possibly my favourite, and it just happened 
be on the japanese version and not the british so i didn't find out about it for ages!!!! 
here it goes..

it does start with some cool bits of random guitar and if im right bass but its not 
crucial to the song, if people are desperate to learn it i'll put it in but for now just 
at the big entrance with the sliding down octaves..

G---------------------|
D---------------------|
A-7---/-----11---/----|    do this two times
E-------0-----------4-|

G-----------------------------------------------------------------|
D-----------------------------------------------------------------|
A-99999999999999999999999999999999-------------------------666699-|
E----------------------------------999999999999999999999999-------|

G------------------------------------------------------------------|
D------------------------------------------------------------------|
A-7777777777777777777777777777777-99999999999999999999999999999999-|
E------------------------------------------------------------------|

then repeat all of this before the chorus, which is...

G---------------------------------|
D-9--9--9-9--9--9-9--9--9-9--9--9-|
A---------------------------------|
E--77-77-7-77-77-7-77-77-7-77-77--|

tricky rhythm, i am aware, continue on..

G------------------------------------------------------------------|
D-9--9--9-9--9--9-9--9--9-9--9--9----------------------------------|
A---------------------------------7--7--7-7--7--7-7--7--7-7--7--7--|
E--77-77-7-77-77-7-77-77-7-77-77---00-00-0-00-00-0-00-00-0-00-00-0-|
                                                                     x2
G-----------------------------------------------------------------|
D-6--6-6-6--6--6-6--6--6-6--6--6----------------------------------|
A--------------------------------7--7--7-7--7--7-7--7--7-7--7--7--|
E--44-4-4-44-44-4-44-44-4-44-44---00-00-0-00-00-0-00-00-0-00-00-0-|

if this prooves to be too difficult then just play the notes on the E string and it 
make things easier.. back to the verse..

G------------------------------------------------------------------|
D------------------------------------------------------------------|
A-7777777777777777-------------------------------------------------| x2
E-----------------000000000000000044444444444444444444444444444444-|

G-----------------------------------------------------------------|
D-----------------------------------------------------------------|
A-99999999999999999999999999999999-------------------------666699-|
E---------------------------------9999999999999999999999999-------|

G-------------------------------------------------------------|
D-------------------------------------------------------------|
A-77777777777777777777777777777-99999999999999999999999999999-|
E-------------------------------------------------------------|

straight into chorus..

G------------------------------------------------------------------|
D-9--9--9-9--9--9-9--9--9-9--9--9----------------------------------|
A---------------------------------7--7--7-7--7--7-7--7--7-7--7--7--|
E--77-77-7-77-77-7-77-77-7-77-77---00-00-0-00-00-0-00-00-0-00-00-0-|
                                                                     x2
G-----------------------------------------------------------------|
D-6--6-6-6--6--6-6--6--6-6--6--6----------------------------------|
A--------------------------------7--7--7-7--7--7-7--7--7-7--7--7--|
E--44-4-4-44-44-4-44-44-4-44-44---00-00-0-00-00-0-00-00-0-00-00-0-|

then the finish..

G---------------------------------------------------------------|
D---------------------------------------------------------------|
A-777777777777777777777777777777-999999999999999999999999999999-|
E---------------------------------------------------------------|

G----------------------------------------------------------------|
D----------------------------------------------------------------|
A-------------------------66669977777777777777777777777777777777-|
E-999999999999999999999999---------------------------------------|

G-----------------------------------------------------------------|
D-----------------------------------------------------------------|
A-99999999999999999999999999999999--------------------------------|
E----------------------------------7~-----------------------------|

and there we have it, an ultimately lovely song, with this finishing on a number of 
guitar parts and no bass. brilliant!
the chorus riff is very fast and very tricky especially if you are just a beginner so it 
be hard, but like i said to make things easier for now you can just play the basic 
on the E string until you get the hang of it!!!

so yeh, cheers, and enjoy!!
            
Submit corrections

comments powered by Disqus
↑ Back to top | Muse Bass for Glorious. Lyrics for acoustic guitar and electric guitar. Tablatures and chords are parodies/interpretations of the original songs. You may use it for private study, scholarship, research or language learning purposes only