» » »

Muse, Fury Bass tabs (ver.3)

Artists:  A B C D E F G H I J K L M N O P Q R S T U V W X Y Z # 

Fury Bass tabs (ver.3)

Muse Tabs
 Rating:
4/5 (4 votes)
Fury lessons Tabs too difficult? Try these video lessons and learn fast
                Band: Muse
Bassist: Chris Wolstenholme
Tuning: Standard

Intro + verse:

G|---------------------| 
D|7--------------5-5-6-|
A|----3--5-6-7---------|          Play till chorus
E|---------------------| Sorry, but I didn't want to count this

Chorus:

G|----7~--------7~--------10~--------10~---|
D|-----------------------------------------|
A|5-5-------5-5-------8-8--------8-8-------|
E|-----------------------------------------|

G|-------------------------9~--------9~-7h9p7~-|
D|----10~-------10~----------------------------|
A|--------------------7-7--------7-7-----------|
E|8-8-------8-8--------------------------------|

G|----7~---575------7~---57~-(7)\-|
D|-------57---7--------57---------|
A|5-5-----------5-5---------------|
E|--------------------------------|

G|----10~----9109-------10~----910~--|
D|--------910----10---------910------|
A|8-8---------------8-8--------------|
E|-----------------------------------|

G|----------------------------------------|
D|----10~----9109-------10~----910~-(10)\-|
A|--------910----10---------910-----------|
E|8-8---------------8-8-------------------|

G|----9~---797------9~---799-|
D|-------79---9--------79----|
A|7-7-----------7-7----------|
E|---------------------------|

Verse:

G|---------------------|
D|7\-------------5-5-6-|
A|----3--5-6-7---------|
E|---------------------| Play till chorus

Chorus:

G|----7~--------7~--------10~--------10~---|
D|-----------------------------------------|
A|5-5-------5-5-------8-8--------8-8-------|
E|-----------------------------------------|

G|-------------------------9~--------9~-7h99-|
D|----10~-------10~--------------------------|
A|--------------------7-7--------7-7---------|
E|8-8-------8-8------------------------------|

G|----7~---575------7~---57~-(7)\-|
D|-------57---7--------57---------|
A|5-5-----------5-5---------------|
E|--------------------------------|

G|----10~----9109-------10~----910~--|
D|--------910----10---------910------|
A|8-8---------------8-8--------------|
E|-----------------------------------|

G|----------------------------------------|
D|----10~----9109-------10~----910~-(10)\-|
A|--------910----10---------910-----------|
E|8-8---------------8-8-------------------|

G|----9~---797------9~---7999|
D|-------79---9--------79----|
A|7-7-----------7-7----------|
E|---------------------------|

Bridge:

G|-----------------|-------------------|
D|-----------------|-------------------|
A|-----------------|-------------------|
E|12\--3-/6--7--0--|12\--3-/6--7-/10h12| x4

Pre-:

G|--------------------|    |--------------------|
D|7--------------5--6-|    |7--------------5556-|
A|----3--5-6-7--------|    |----3--5-6-7--------|
E|--------------------| x3 |--------------------|

Chorus:


G|----7~--------7~--------10~--------10~---|
D|-----------------------------------------|
A|5-5-------5-5-------8-8--------8-8-------|
E|-----------------------------------------|

G|-------------------------9~--------9~-7h99-|
D|----10~-------10~--------------------------|
A|--------------------7-7--------7-7---------|
E|8-8-------8-8------------------------------|

G|----7~---575------7~---57~-(7)\-|
D|-------57---7--------57---------|
A|5-5-----------5-5---------------|
E|--------------------------------|

G|----10~----9109-------10~----910~--|
D|--------910----10---------910------|
A|8-8---------------8-8--------------|
E|-----------------------------------|

G|----------------------------------------|
D|----10~----9109-------10~----910~-(10)\-|
A|--------910----10---------910-----------|
E|8-8---------------8-8-------------------|

G|----9~---797------9~---7999|
D|-------79---9--------79----|
A|7-7-----------7-7----------|
E|---------------------------|

Ending:

G|-----------------|-------------------|
D|-----------------|-------------------|
A|-----------------|-------------------|
E|12\--3-/6--7--0--|12\--3-/6--7-/10h12| x3

G|-----------------|
D|-----------------|
A|-----------------|
E|12\--3-/6--7--0--| x2

Hope that You'll find this tab useful. Please rate and check out other

/  slide up
\  slide down
h  hammer-on
p  pull-off
~  let ring
            
Submit corrections

comments powered by Disqus
↑ Back to top | Muse Bass for Fury. Lyrics for acoustic guitar and electric guitar. Tablatures and chords are parodies/interpretations of the original songs. You may use it for private study, scholarship, research or language learning purposes only