» » »

Muse, Fury Bass tabs (ver.1)

Artists:  A B C D E F G H I J K L M N O P Q R S T U V W X Y Z # 

Fury Bass tabs (ver.1)

Muse Tabs
 Rating:
4/5 (4 votes)
Fury lessons Tabs too difficult? Try these video lessons and learn fast
                Main Riff (Verse)
G--------------------------|
D--------------------------|
A--------------------------| 
D---7---3 --1-22---5-6-7---|

Chorus 
G-------------------------------------------------------------------------|
D-------------------------------------------------------------------------|  x1
A---555555555555555------------------3333333333333333---------------------|
D-------------------3333333333333333-------------------2222222222222222---|

G-----------------------------|
D--------------4h5----------------------------------------------2h3------------------------------------------------|
A---5555555555------5555555--------------2h3--------3333333333-------3333333-------------------1h2-----------------|  x1
D----------------------------3333333333-------333333--------------------------2222222222------2222222--------|

Verse
Chorus

Interlude
G------------------------------------|
D------------------------------------|
A------------------------------------|
D---7---0----2--4-2--7---0---4-5-6---|

Verse
Chorus
Interlude to finish
            
Submit corrections

comments powered by Disqus
↑ Back to top | Muse Bass for Fury. Lyrics for acoustic guitar and electric guitar. Tablatures and chords are parodies/interpretations of the original songs. You may use it for private study, scholarship, research or language learning purposes only