» » »

Fury Bass tabs (ver.2)

Artists:  A B C D E F G H I J K L M N O P Q R S T U V W X Y Z # 

Fury Bass tabs (ver.2)

Muse
Rating:
0/5 (0 votes)

Hard to play? Try these video lessons and learn fast.
                Played with distortion and an octave pedal throughout
Listen for rhythm

Main Riff (Verse)
G------------------------------|
D------------------------------|   x8
A----12---3--5--6-7-----10--11-| 
E------- ----------------------|

Chorus 
G-------7---------7--------10-------10--------5---------5--------9--------9----|
D------------------------------------------------------------------------------|  x1
A----5--------5--------8--------8----------3--------3----------7--------7------|
E------------------------------------------------------------------------------|

G-------7-----6h7-----------7-----6h7----------10-------9h10-----------10-------9h10---------5-------4h5-----------5--------4h5-------9-----7h9-----------9-------8h9--|
D----------6h7---7p6----------6h7------------------9h10------10p9-----------9h10----------------4h5------5p4------------4h5-------------8h9----9p8-----------8h9-------|  x1
A----5--------------------5-----------------8-----------------------8---------------------3---------------------3------------------7-------------------7---------------|
E----------------------------------------------------------------------------------------------------------------------------------------------------------------------|

Verse  x6
Chorus

Interlude
G----9---------------------9----------------7--9-|
D----------------8--9----------------8--9--------|   x4
A---------10-----------7------10-----------------|
D------------------------------------------------|

Verse  x4
Chorus
Interlude x3

Ending
G----9---------------------9------------------|
D----------------8--9----------------8--9-----|
A---------10-----------7------10-----------7--|
D---------------------------------------------|
            
Hard to play? Try these video lessons and learn fast. | Correct




comments powered by Disqus
↑ Back to top | Tablatures and chords are parodies/interpretations of the original songs. You may use it for private study, scholarship, research or language learning purposes only