» » »

Muse, Falling Down Tabs (ver.2)

Artists:  A B C D E F G H I J K L M N O P Q R S T U V W X Y Z # 

Falling Down Tabs (ver.2)

Muse Tabs
 Rating:
4/5 (4 votes)
Falling Down lessons Tabs too difficult? Try these video lessons and learn fast
1
                Falling Down
By christianfox

verse
E-----------------------0-----------------------
B---------------------3--3----------------------
G--6---6---6-6/7/6-----2--2-----2-4/6/4-2-2-4/6-
D--7--7-7-5-7-------4------4s3-----------4-4----
A--0----------------0------0*-------------------
E-----------------------------------------------

E------0---------0----------------
B----3--3------3--3--3-2--2-------
G-----1--1------2----2-2-2-2------
D-----------3s4------4-2----2h4h2-
A-----------0*--------------------
E--0*-----------------------------

* let ring
2/4/2 bend to note on fourth fret
s slide

chorus

E--2--1--0-----0--2--0
B--2--1--2--2--3--0--3
G--2--2--2--4--2--2--1
D--4--3--2--3--0--1--2
A--4--3--0--4--------2
E--2--1--------------0

standard picking
     *
    * *
   *   *
  *     *
 *       * 
*         * i cant remember what type of
            picking this is called.

i'm falling down 
15000 people scream
they were all begging for your dream

i'm falling down
5000 house burning down
noone is gonna save this town

too late, 
i already found what i was looking for
you know it wasn't here
no it wasn't here

i was calling your name
you would never hear me sing
you wouldn't let me begin

so i'm crawling away
cos you broke my heart in two
now i will not forget you

too late,
i already found what i was looking for
you know it wasn't you 
no it wasn't you
no

falling away
you would never see me through
now i cannot forget you

falling down
5000 houses burning down
noone is gonna save this town

too late
i already found what i was looking for
you know it wasn't you
it wasn't here

falling down
now your world is upside-down
i'm headung straight for the clouds
            
Submit corrections

comments powered by Disqus
↑ Back to top | Muse Tabs for Falling Down. Lyrics for acoustic guitar and electric guitar. 1 Tablatures and chords are parodies/interpretations of the original songs. You may use it for private study, scholarship, research or language learning purposes only