» » »

Muse, Falling Down Bass tabs (ver.2)

Artists:  A B C D E F G H I J K L M N O P Q R S T U V W X Y Z # 

Falling Down Bass tabs (ver.2)

Muse Tabs
Rating:
0/5 (0 votes)
Falling Down lessons Tabs too difficult? Try these video lessons and learn fast
                Falling Down by Muse
Double Bass played by Chris Wolstenholme
Taken from the album Showbiz

I use standard tuning, except for the E string, which I tune down to Eb
(Drop D is unecessary here, but you may like it better that way).

Chorus (1:14)
G|-----------------------------------------------------------|
D|-----------------------------------------------------------|
A|---------------------1-23--33---4-(4)---5-55---6-----------|
Eb|-2-(2)---1---3-45--------------------------------7---/0-0-|

Verse (1:39)
G|-----------------------------------------------|
D|-----------------------------------------------|
A|----------------46-------------------4/6-------|
E|-5---5---5---5------5--3--0------5------5------|

G|--------------------------------------------|
D|--------------------------------------------|
A|------------------6-------------------4/6---|
E|-5---5---5---5---5----5--3--0----5--5----5--|

Chorus (2:27)
D|---------------------------------------------------------------|
A|----------------------------1-23--33---4-4---5-55---6----------|
Eb|-4-42---2---1--1--3-45--5-----------------------------7--/0-0-|

Verse (2:51)
G|---------------------------------------------|
D|-----------------------------------6---------|
A|----------------4/6------------------4/6-----|
E|-5---5---5---5------5--3--0------5------5----|

G|---------------------------------------------|
D|---------------------------------------------|
A|------------------6--------------------4/6---|
E|-5---5---5---5---5----5--3--0----5--5------5-|

Chorus (3:38)
D|--------------------------------------------------------------------------|
A|-------------------------------1-23--33---4-44---5-55---6-----------------|
Eb|-4-42--2-2--2--1--1--3-45--5------------------------------7--/0-0------5-|

Another great song, it's played on a double bass, so you might want to play it an octave 
(the first note would then be 3 on the D string).
I tried to make it as perfect as I could, but since some notes are very faint, you might 
to change a few things.
Don't be shy if you have questions.
Cheers
            

comments powered by Disqus
↑ Back to top | Muse Bass for Falling Down. Lyrics for acoustic guitar and electric guitar. Tablatures and chords are parodies/interpretations of the original songs. You may use it for private study, scholarship, research or language learning purposes only