» » »

Muse, Falling Down Bass tabs (ver.1)

Artists:  A B C D E F G H I J K L M N O P Q R S T U V W X Y Z # 

Falling Down Bass tabs (ver.1)

Muse Tabs
Rating:
0/5 (0 votes)
Falling Down lessons Tabs too difficult? Try these video lessons and learn fast
                Band: Muse
Bassist: Chris Wolstenholme
Tuning: Standard

Played on double bass. Time signature is 6/8

Bass starts on 1:14

Chorus:

G|------------|------------|------------|------------|
D|------------|------------|------------|------------|
A|------------|------------|---------2-3|4~---x4~----|
E|2~----------|1~-------3-4|5~----------|------------|

G|------------|------------|------------|------------|
D|------------|------------|------------|------------|
A|5~----5~----|6~---x6~----|7~----------|------------|
E|------------|------------|------7\----|0~----------|

Verse: Play it twice. There are endings below.

G|------------|------------|------------|------------|
D|------------|------------|------------|------------|
A|------------|------------|------------|-----x7~----|
E|5~----------|5~----------|5~----------|5~----------|

                                        1st            2nd
G|------------|------------|------------|------------| |------------| 
D|------------|------------|------7-----|------------| |------------|
A|------------|------------|---------/7-|------------| |------------|
E|5~----3\(2)\|0~----------|5~----------|5~----------| |5~-------4-3|

Chorus:

G|------------|------------|------------|------------|
D|------------|------------|------------|------------|
A|------------|------------|---------2-3|4~---x4~----|
E|2~----2~----|1~----1--3-4|5~----5-----|------------|

G|------------|------------|------------|------------|
D|------------|------------|------------|------------|
A|5~----5~----|6~---x6~----|7~----------|------------|
E|------------|------------|------7\----|0~----------|

Verse: Same as above

Chorus: 

G|------------|------------|------------|------------|
D|------------|------------|------------|------------|
A|------------|------------|---------2-3|4~---x4~----|
E|2~----2~----|1~----1--3-4|5~----5-----|------------|

G|------------|------------|------------|------------|
D|------------|------------|------------|------------|
A|5~---x5~----|6~---x6~----|7~----------|------------|
E|------------|------------|------7\----|0~----------|

Outro:

G|------------|------------|------------|------------|
D|------------|------------|------------|------------|
A|------------|------------|------------|------------|
E|5~----------|------------|------------|------------|

/  slide up
\  slide down
h  hammer-on
p  pull-off
~  let ring
            

comments powered by Disqus
↑ Back to top | Muse Bass for Falling Down. Lyrics for acoustic guitar and electric guitar. Tablatures and chords are parodies/interpretations of the original songs. You may use it for private study, scholarship, research or language learning purposes only