» » »

Do We Need This Bass tabs (ver.1)

Artists:  A B C D E F G H I J K L M N O P Q R S T U V W X Y Z # 

Do We Need This Bass tabs (ver.1)

Muse
Rating:
0/5 (0 votes)

Hard to play? Try these video lessons and learn fast.
                Here is the great song Do We Need This (live) from the Random 1-8 album.

Intro
------------------- 
------------------- (x2)
--2---0----------- 
-----------3------- 

Verse
-------------------------------------------------------------- 
--------------------------------------------------------------
-2--0------2---0--------------------------------0---/14\2-----
---------3------------3----2----0----3----4-------------------

Pre-Chorus
--------------------
--------------------
--2222---0000-------
---------------333--

The Chorus is the same as the verse but each note is played multiple times.

At the end of the guitar part play an open E.

Play this at the “I don’t think you really care…….” and on the loud part.

----------------- 
--2-------------- At the end of the quiet bit play a quick open E.
------0----2----- 
----------------- 

Play the Chorus again then play the above part until the very end when you play another open E.Please rate my tab the way it sounds.
            
Hard to play? Try these video lessons and learn fast. | Correct




comments powered by Disqus
↑ Back to top | Tablatures and chords are parodies/interpretations of the original songs. You may use it for private study, scholarship, research or language learning purposes only