>
 >
Do We Need This

Do We Need This Guitar Tabs

Muse - Do We Need This chords, tabs, tablatures, lyrics

Guitar lessons | Add/correct | Request | Top 50 tabs Artists:  A B C D E F G H I J K L M N O P Q R S T U V W X Y Z 0-9

Do We Need This Guitar Tabs – Muse

CD, Sheet music, Poster

Do you like Do We Need This? Share with your friends now
Bass TabsTabs
---------------------------------------------------------------------
                             Do We Need This? - Muse
---------------------------------------------------------------------
Tuning: Eadgbe
There wasn’t any sort of guitar tab for this (which was quite surprising considering its 
out 8 years and its such a good song) so I thought I’d try and tab it myself. I owe a 
of this to the bass tab but I’ve come up with the guitar parts.
The timings a bit tricky so you’ll probably have to listen to the song a bit.

Intro: Percussion-then (0:24) (Possibly Piano)
e|------------------|
B|------------------|
G|------------------|
D|-9-----7-----5----| (x2)
A|-9-----7-----5----|
E|-7-----5-----3----|

Verse: “too many young and too many old”
e|----------------------------------------------------------------|
B|----------------------------------------------------------------|
G|----------------------------------------------------------------|
D|-9--9--9--9--9---7--7--7--7--7---5--5--5--5--5---5--5--5--5--5—-| (x2)
A|-x--x--x--x--x---x--x--x--x--x---x--x--x--x--x---x--x--x--x--x--|
E|-7--7--7--7--7---5--5--5--5--5---3--3--3--3--3---3--3--3--3--3--|

“you want everything to change”
e|----------------------------------------------------------------|
B|----------------------------------------------------------------|
G|----------------------------------------------------------------|
D|----------------------------------------------------------------|
A|-5--5--5--5--5---7--7--7--7--7---7--7--7--7--7---7--7--7--7--7--|
E|-2--2--2--2--2---0--0--0--0--0---3--3--3--3--3---4--4--4--4--4--|

e|----------------------------------------------------|
B|----------------------------------------------------|
G|----------------------------------------------------|
D|----------------------------------------------------|
A|-7--7--7--7--7---7--7--7--7--7---9--9--9--9--9—--9~-|
E|-5--5--5--5--5---7--7--7--7--7---7--7--7--7--7—--7~-|

Pre-Chorus: “oooh”
e|---------------------------------3-------------3------|
B|---------------------------------3---------3-----3----|
G|---------------------------------3-----------3-----3--|
D|-9--9--9-9----7--7--7--7-7----5-----------------------|
A|-9--9--9-9----7--7--7--7-7----5-----------------------|
E|-7--7--7-7----5--5--5--5-5----3---------3-------------|

e|-----------------------------------------------3--------------3-----|
B|----------------------------5--------------------3--------3-----3---|
G|---------7---------------------7-------------------3----3---3-----3-|
D|-----9------9----------7----------7--------5----------5-------------|
A|---9---9------9------7---7---------------5---5----------------------|
E|-7-----------------5-------------------3----------------------------|


Chorus: “she’s only exists when she’s on the screen”
e|----------------------------------------------------------|
B|----------------------------------------------------------|
G|----------------------------------------------------------|
D|-9-9-9-9-9-9-9--7-7-7-7-7-7-7-----12-11-----11-12-11------|  (x2)
A|-9-9-9-9-9-9-9--7-7-7-7-7-7-7-----------13-----------13b--|
E|-7-7-7-7-7-7-7--5-5-5-5-5-5-5-----------------------------|

“we want everything to change”
e|--------------------------------------------------------------|
B|--------------------------------------------------------------|
G|--------------------------------------------------------------|
D|-12-12-12-12-12-12-12-\10-10-10-10-10-10-10-\-9-9-9-9-9-9-9---|
A|--x—-x--x--x--x--x--x---x--x--x--x--x--x--x---x-x-x-x-x-x-x---|
E|-10-10-10-10-10-10-10-\-8--8--8--8--8--8--8-\-7-7-7-7-7-7-7---|

e|--------------------------------------------------------------|
B|--------------------------------------------------------------|
G|--------------------------------------------------------------|
D|-/10-10-10-10-10-10-10--/14-14-14-14-14-14-14--/17-17-17-17---|
A|---x--x--x--x--x--x--x----x--x--x--x--x--x--x----x--x--x--x---|
E|-/-8--8--8--8--8--8--8--/12-12-12-12-12-12-12--/15-15-15-15---|

e|--------------------------------------------------------------0~---|
B|--------------------------------------------------------------0~---|
G|--------------------------------------------------------------0~---|
D|-\-16-16-16-16-16-16-16-16-16-16-16-16-16-16-16-16------------2~---|
A|----x--x--x--x--x--x--x--x--x--x--x--x--x--x--x—x-------------2~---|
E|-\-14-14-14-14-14-14-14-14-14-14-14-14-14-14-14-14------------0~---|

Interlude: (2:08)
e|--------------------------------------------------------------------|
B|--------------------------------------------------------------------|
G|--------------------------------------------------------------------|
D|--------------------------------------------------------------------|
A|-------------------------5-5-4-4-3-3-3-3-3-3-3-3--------------------|
E|-3-3-3-4-4-4-7-7-7-0-0-0-------------------------5-5-5-5-5-5-5-5—-0-|
                                                  (gradually bend)

“tell me do we really need this?” (come in at 2:32)
e|----------------------------------------------------------------|
B|----------------------------------------------------------------|
G|----------------------------------------------------------------|
D|(bass for guitar)-2------------2----------2------------2--------|
A|--------------------0-1----------0----------0-1----------0-1----|
E|-------------------------------------------------------------0--|

e|----------------------------|
B|----------------------------|
G|-9-9-9-9--------------------|
D|-9-9-9-9---7-7-7-7---8-8----| (x8)
A|-7-7-7-7---7-7-7-7---8-8----|
E|-----------5-5-5-5---6-6----|

Chorus: “too many young and too many old!”
e|-----------------------------------------------------------|
B|-----------------------------------------------------------|
G|-----------------------------------------------------------|
D|-9-9-9-9-9-9-9--7-7-7-7-7-7-7-----12-11-----11-12-11-------| (x2)
A|-9-9-9-9-9-9-9--7-7-7-7-7-7-7-----------13-----------13b---| (2nd time
E|-7-7-7-7-7-7-7--5-5-5-5-5-5-5------------------------------| without PM)
 PM. . . . . (gradually release)
“we want everything to change”
e|--------------------------------------------------------------|
B|--------------------------------------------------------------|
G|--------------------------------------------------------------|
D|-12-12-12-12-12-12-12-\10-10-10-10-10-10-10-\-9-9-9-9-9-9-9---|
A|--x—-x--x--x--x--x--x---x--x--x--x--x--x--x---x-x-x-x-x-x-x---|
E|-10-10-10-10-10-10-10-\-8--8--8--8--8--8--8-\-7-7-7-7-7-7-7---|

e|--------------------------------------------------------------|
B|--------------------------------------------------------------|
G|--------------------------------------------------------------|
D|-/10-10-10-10-10-10-10--/14-14-14-14-14-14-14--/17-17-17-17---|
A|---x--x--x--x--x--x--x----x--x--x--x--x--x--x----x--x--x--x---|
E|-/-8--8--8--8--8--8--8--/12-12-12-12-12-12-12--/15-15-15-15---|

e|--------------------------------------------------------------|
B|--------------------------------------------------------------|
G|--------------------------------------------------------------|
D|-\-16-16-16-16-16-16-16-16-16-16-16-16-16-16-16-16------------|
A|----x--x--x--x--x--x--x--x--x--x--x--x--x--x--x—x--(16 times)-|
E|-\-14-14-14-14-14-14-14-14-14-14-14-14-14-14-14-14------------|

Outro:
e|---------------------------------------------------------|
B|--------------------------(Guitar Kicks In)--------------|
G|----------------------------9-9-9-9----------------------|
D|----------------------(x4)--9-9-9-9---7-7-7-7--8-8—(x4)--|
A|-7-7-7-7--------------------7-7-7-7---7-7-7-7--8-8-------|
E|-----------5-5-5-5--6-6---------------5-5-5-5--6-6-------|

Outro Solo:
e|----------------------------------------------------------------|
B|----------------------------------------------------------------|
G|-101010101010101010101010101010101010101010101010101010101010---|
D|-x-x-x-x-x-x-x-x-x-x-x-x-x-x-x-x-x-x-x-x-x-x-x-x-x-x-x-x-x-x—---|
A|-8-8-8-8-8-8-8-8-8-8-8-8-8-8-8-8-8-8-8-8-8-8-8-8-8-8-8-8-8-8----|
E|----------------------------------------------------------------|

e|------------------------------------------------------------------|
B|------------------------------------------------------------------|
G|------------------------------------------------12121212121212~---|
D|-------------------------------(whole solo x2)---x-x-x-x-x-x-x----|
A|---------/12------------/12---------------------10101010101010~---|
E|---/4------------/4-----------------------------------------------|


| .  PM (Palm Mute)
| /  slide up
| \  slide down
| h  hammer-on
| p  pull-off
| ~  let ring
| +  harmonic
| x  Mute note
| b  bend
=====================================================================





Comments


Popular Muse tabs & chords
Dracula Mountain Bass Tabs
Hysteria 2 Bass Tabs
Feeling Good 3 Chords
I Belong To You Chords
Con-science Tabs
Hate This And I'll Love You Tabs
Interude Tabs
Newborn Super Easy Tabs
Time Is Running Out Correct Tabs
Liquid State Ukulele


Song lyrics



↑ Back to top | Tablatures and chords are parodies/interpretations of the original songs. You may use it for private study, scholarship, research or language learning purposes only
© 2014 AZChords.com Contact us | Privacy policy | DMCA | Add/correct tabs | Request tabs | Top 50 tabs