>
 >
Do We Need This

Do We Need This Bass Tabs

Muse - Do We Need This chords, tabs, tablatures, lyrics

Guitar lessons | Add/correct | Request | Top 50 tabs Artists:  A B C D E F G H I J K L M N O P Q R S T U V W X Y Z 0-9

Do We Need This Bass Tabs – Muse

CD, Sheet music, Poster

Do you like Do We Need This? Share with your friends now
Bass TabsTabs




Listen a few times to the song before playing it... to get the rithms and stuff!!! Have Fun!!! ;)

Intro
            X2
G||-----------------|
D||-----------------|
A||--2----0---------|
E||------------3----|

   
Verse
                                                           X2
G||----------------------------------------------------------|
D||----5------5------5-------5-----5-------5----5-------5----|
A||----------------------------------------------------------|
E||--7--x7-77---7--5---x5-55---5-3---x3-33---33---x3-33---3--|


G||--------------------------------------------------------------------------|
D||--------------------------------------------------------------------------|
A||----5-------5------7-------7-----7-------7-----7-------7-----7-------7----|
E||--2---x2-22---2--0---x0-00---0-3---x3-33---3-4---x4-44---4-5---x5-55---5--|


G||---------------------------------|
D||--9-9-9-9-x9-7-------------------|
A||---------------------------------|
E||----------------7-7-7-7-x7-5-7~--|


Pre - Chorus

G||------------------------------------------|
D||------------------------------------------|
A||------------------------------------------|
E||--7-7-7--75--5-5-5-5--333--3-33--3-3-3-3--|


G||-----------------------------------------|
D||-----------------------------------------|
A||-----------------------------------------|
E||--7-7-7--75--5-5-5-5--3-3-3-33--3-3-3-3--|


Chorus

G||------------------|-------------------|
D||------------------|-------------------|
A||------------------|-------------------|
E||-7-7-7-7-7-7-7-7--|--5-5-5-5-5-5-5-5--|


G||-------------------|-------------------------------------------|
D||-------------------|-------------------------------------------|
A||-------------------|-------------------------------------------|
E||--3-3-3-33-3-3-33--|--7-7-7--75--5-5-5-5--53--3-3-33--3-3-3-3--|


G||-------------------------------------------------|
D||-------------------------------------------------|
A||-------------------------------------------------|
E||--2-2-22--0-0---00-0--3-3-33--4-4---44--45-5-55--|

G||--------------------------------------------------------|------|-----|
D||--------------------------------------------------------|-wait-|-----|
A||------------------2-2-2-2-2-2-2-2-2-2-2-2-2-2-2-2-2-----|------|-----|
E||--7-7-7-7-7-7-7/-------------------------------------0--|------|--0--|


Interlude

G||----------|----------|------------|-----------|
D||--2-------|--2-------|--2---------|--2--------|
A||----0-1---|----0-----|----0-1-----|----0-1----|
E||----------|----------|------------|--------0--|

                       X8
G||-------------------|
D||--2-22-2-----------|
A||--------0-00-01-1--|
E||-------------------|


Chorus

G||------------------|----------------------|
D||------------------|----------------------|
A||-2-2-2-2-2-2-2-2--|----------------------|
E||------------------|--5-5-5-5-5-5-5-5\-/--|


G||-------------------|-----------------------------------------|
D||-------------------|------------------7-7--------------------|
A||-------------------|-----------------------------------------|
E||--3-3-3-33-3-3-33--|--7-7-7--75--5-5-5-5-3--3-3-33--3-3-3-3--|


G||-------------------------------------------------|
D||-------------------------------------------------|
A||-------------------------------------------------|
E||--2-2-22--0-0---00-0--3-3-33--4-4---44--45-5-55--|

G||-----------------------------------------------------|
D||-----------------------------------------------------|
A||------------------2-2-2-2-2-2-2-2-2-2-2-2-2-2-2-2-2--|
E||--7-7-7-7-7-7-7/-------------------------------------|


Endind

                       X4
G||--9-99-9-----------|
D||--------7-77-78-8--|
A||-------------------|
E||-------------------|

                       X4
G||-------------------|
D||-------------------|
A||--7-77-7-----------|
E||--------5-55-56-6--|

                       X8
G||-------------------|
D||-------------------|
A||-------------------|
E||--0-00-05-55-56-6--|





Comments


Popular Muse tabs & chords
Fury Bass Tabs
Interlude 2 Bass Tabs
Muscle Museum 3 Bass Tabs
Hysteria 2 Chords
Bliss Tabs
Burning Bridges Tabs
Dead Star (Solo) Tabs
Exo-politics 1 Tabs
The Groove Tabs
Hoodoo Ukulele


Song lyrics



↑ Back to top | Tablatures and chords are parodies/interpretations of the original songs. You may use it for private study, scholarship, research or language learning purposes only
© 2014 AZChords.com Contact us | Privacy policy | DMCA | Add/correct tabs | Request tabs | Top 50 tabs