» » »

City Of Delusion Bass tabs (ver.3)

Artists:  A B C D E F G H I J K L M N O P Q R S T U V W X Y Z # 

City Of Delusion Bass tabs (ver.3)

Muse
Rating:
0/5 (0 votes)

Hard to play? Try these video lessons and learn fast.
                City of Delusion Bass Tab by Muse

Acoustic Intro until 0:41ish

Verse: (work out timing by listening :P)

G-----------0----|----------0-----|-----------0----|----------0-----|
D----3---2----2--|---3---2----2---|----3---2----2--|---3---2----2---|
A--5---4---------|-5---4----------|--5---4---------|-5---4----------|
E----------------|----------------|----------------|----------------|

G----------0-3-0-|----2-0-3-5-3---|-----2----0-3-0-|-----------0----|
D-----3--2-------|--3-------------|--3----2--------|----3----2---2--|
A--5-------------|----------------|----------------|--5---4---------|
E----------------|----------------|----------------|----------------|

G----------------|----------------|----------------|-----------------|
D----------------|----------------|----------------|-----------------|
A----7----8-10-8-|---7----8--10-8-|---7----7-8-7---|---0-------------|
E-5----6---------|-5---6----------|-5---3----------|-1---0--3--5--3--| <--(not sure about 

this bit)


G---------0------|---------0------|---------0------|
D---3---2---2----|---3---2---2----|---3---2---2----|
A-5---4----------|-5---4----------|-5---4-------000|
E----------------|----------------|----------------|


Chorus:

G---------------------|---------------------|---------------------|
D---------------------|---------------------|---------------------|
A--3---3---3----------|--4---4---4----------|--5---5---5----------|
E---------------------|---------------------|---------------------|
 
G---------------------|---------------------|---------------------|
D---------------------|--5---5---5----------|--3---3---3----------|
A--0---0---0----------|---------------------|---------------------|
E---------------------|---------------------|---------------------|
  
G---------------------|---------------------|---------------------|
D--2---2---2----------|--0---0---0----------|---------------------|
A---------------------|---------------------|--0---0---0----------|
E---------------------|---------------------|---------------------|
 
 
G------------------------|------------------------|------------------------|
D--5---5---5---5---5--5--|--3---3---3---3---3--3--|------------------------|
A------------------------|------------------------|--4---4---4---4---4--4--|
E------------------------|------------------------|------------------------|
 
G------------------------|------------------------|------------------------|
D------------------------|------------------------|--5---5---5---5---5--5--|
A--5---5---5---5---5--5--|------------------------|------------------------|
E------------------------|--5---5---5---5---5--5--|------------------------|
 
G------------------------|------------------------|------------------------|
D--3---3---3---3---3--3--|--2---2---2---2---2--2--|--0---0---0---0---0--0--|
A------------------------|------------------------|------------------------|
E------------------------|------------------------|------------------------|

G----------------|----------------|----------------|-----------------|
D----------------|----------------|----------------|-----------------|
A----7----8-10-8-|---7----8--10-8-|---7----7-8-7---|---0-------------|
E-5----6---------|-5---6----------|-5---3----------|-1---0--3--5--3--|

G----------0-----|
D---3---2----2---|
A-5---4----------| x4
E----------------|

Verse 2 (with phaser) (same as Verse 1)

Chorus

Acoustic guitar break

Verse 3 (with trumpet solo :D)

Chorus
            
Hard to play? Try these video lessons and learn fast. | Correct




comments powered by Disqus
↑ Back to top | Tablatures and chords are parodies/interpretations of the original songs. You may use it for private study, scholarship, research or language learning purposes only