» » »

City Of Delusion Tabs (ver.2)

Artists:  A B C D E F G H I J K L M N O P Q R S T U V W X Y Z # 

City Of Delusion Tabs (ver.2)

Muse
Rating:
0/5 (0 votes)

Hard to play? Try these video lessons and learn fast.
                Muse
City of Delusion
Black Holes And Revelation

Moss Fryer

EADGBE 440

Dm Dmaj7sus2 (Reference Chords)
Dm Gm F6 Gm
F6 Gm Dm Dmaj7sus2
Dmaj7sus2 Dm/maj7
Dmaj7sus4 Dm/maj7
Dmaj7sus2 C#b5add#9
c#Dim/F Em6(no5)

F5 C#5 D5 A5
G5 F5 E5 D5
A G5 F5 E6(no3)
A G F E/F/E A
G5 F5 E5 D5
A A# C C# D

Intro

e--xxxxxxxx-1-0-------1-3-5-6-5-3-1-0--0-1-3-1-0-(x2)--0-0-0-0-| all (x2)
B--xxxxxxxx-3-2-(x8)--3-3-6-8-6-3-3-2--2-2-2-2-2-------2-2-2-2-|
G--xxxxxxxx-2-2-------2-3-5-7-5-3-2-2--2-2-2-2-2-------2-0-0-0-|
D--xxxxxxxx-0-0-------0-0-0-0-0-0-0-0--0-0-0-0-0-------0-0-3-2-|
A--------------------------------------------------------------|
E--------------------------------------------------------------|

e--1-0-------111-|
B--3-2-(x3)--333-|
G--2-2-------222-|
D--0-0-------000-|
A----------------|
E----------------|

Pre Chorus

e--------------------------------------------------|
B-------------------------------------------101010-|
G--xxxx-101010-666-777-----------------777--xxxxx--|
D--xxxx-101010-666-777-777-555-333-222-777--77777--|
A--xxxx-8-8-8--444-555-777-555-333-222-555---------|
E----------------------555-333-111-000-------------|

Chorus

e----------------------------------------------------------|
B------------------------------------1010-----11-13-14-15\-|
G--------14-12-10-9/10/9----------7--xxx-etc--x--x--x--x---|
D--5-3-2-x--x--x--x/x-/x-7--5-3-2-7--777------8--10-11-12\-|
A--5-3-4-12-10-8--7/8-/7-x--5-3-2-5------------------------|
E--3-1-0-----------------5--3-1-0--------------------------|


Interlude - Bass Riff

(guitar hits muted strings $ until * riff)

e----------------------$------------------|
B-----------------------------------------|
G-----------------------------------------|
D-------------5---(x4)-----------5---(x4)-|
A--55-88-44-7---7--------5-8-4-7---7------|
E-----------------------------------------|

e--------------------------------------------------|
B--------------------------------------------------|
G----------------------5---------------------------|
D--------5-8-5---7-5-8---8---7---5-8-5---------5---|
A--5-8-7-------8-----------8---7-------5-8-4-7---4-|
E--------------------------------------------------|

e--*----------------------------------------|
B-------------------------------------------|
G-------------------------------------------|
D----------5-------------5---------0--0-----|
A----7---8---8-(x2)----7---7-8-7--------1-0-|
E--5---6-------------5-----------1---0------|

e----- (guitar)
B--10-
G--x--
D--7--
A-----
E-----

e----------------------------|
B----------------------------|
G----------------------------|
D----------5-----------------|
A--5-8-4-7---7-(x3)--5-5-5-\-|
E----------------------------|

Pre Chorus
Chorus

Trumpet Solo - (for guitar)

(Guitar plays intro)
(Trumpet enter after 4 intro bars)

e-----------------------------------------------8----8-10-|
B--3/10--11-13-11-10----10^11--10-8-10-11-10-11---11------|
G--------------------12-----------------------------------|
D---------------------------------------------------------|
A---------------------------------------------------------|
E---------------------------------------------------------|

e--10-12-13-12-10-12-12-13^12^10-----13-12-10-12^13^12-|
B---------------------------------10-------------------|
G------------------------------------------------------|
D------------------------------------------------------|
A------------------------------------------------------|
E------------------------------------------------------|

e--15-13-12-13-12----------12-----10/17~~~-|
B-----------------15-14^15-----10----------|
G------------------------------------------|
D------------------------------------------|
A------------------------------------------|
E------------------------------------------|

Pre Chorus
Chorus

End
            
Hard to play? Try these video lessons and learn fast. | Correct




comments powered by Disqus
↑ Back to top | Tablatures and chords are parodies/interpretations of the original songs. You may use it for private study, scholarship, research or language learning purposes only